» » »

What You Want Tabs (ver.2)

Artists:  A B C D E F G H I J K L M N O P Q R S T U V W X Y Z # 

What You Want Tabs (ver.2)

John Butler Trio
Rating:
0/5 (0 votes)

Hard to play? Try these video lessons and learn fast.
                (Intro)
Tuning:C G C G C E 

I have to say John Butler has to be one of the most underrated guitarists alive.
This is a difficult song and the guy who did version 1 got close but 
it still wasnt right.THIS IS THE RIGHT WAY!

12 string acoustic
strings arr. for gtr.

|--------------------------------------------------------------------------|
|---------11--------------4----11------------------------------------------|
|----7----12---------7----7----12---------7------------7----7---0---0--x---|
|----4----11----7----6----4----11----7----6------------4----4---0---0--x---|
|----0-----9----4----4----0-----9----4----4----0-0-0---0----0---0---0--x---|
|----0-----9----4----4----0-----9----4----4----0-0-0---0----0---0---0--x---|


|--------------------------------------------------------------------------|
|--------------------------------------------------------------------------|
|---12-12-12-12----0--0--------------------7-7-7-7-7-7-7---7----7--0-0--x--|
|---11-11-11-11----0--0---7----7-6-6-------6-6-6-6-6-0-0---4----4--0-0--x--|
|----9--9--9--9----0--0---4----4-4-4-------4-4-4-4-4-0-0---0----0--0-0--x--|
|----9--9--9--9----0--0---4----4-4-4-------4-4-4-4-4-0-0---0----0--0-0--x--|

this part basically reapeats throughout the song.
|--------------------------------------------------------------------------| 
|--------------------------------------------------------------------------|
|-12-12-12-12-0-0------------7-7-7-7-7-7-7-7-------------------------------|
|-11-11-11-11-0-0-7--7-7-6-6-6-6-6-6-6-6-0-0-------------------------------|
|--9--9--9--9-0-0-4--4-4-4-4-4-4-4-4-4-4-0-0-------------------------------|
|--9--9--9--9-0-0-4--4-4-4-4-4-4-4-4-4-4-0-0-------------------------------|

gtr 2 (acous/elec)
|--------------------------------------------------------------------------|
|----------------------------7-7-7-7\6-6-0---------------------------------|
|----------------------------------------0---------------------------------|
|--------------------------------------------------------------------------|
|--------------------------------------------------------------------------|
|--------------------------------------------------------------------------|

Ill throw in the interlude to.
|--------------------------------------------------------------------------|
|-------0-------------------------0-----------0-----------0----------------|
|-------------------------------------0----------------------------------7-|
|--0h4-----4-4/6-6/7\6-4----------------------------0h4------4-4/6-6/7\6---|
|---------------------------5----------------------------------------------|
|--0-------------------------------------0----------0----------------------|


|--------------------------------------------------------------------------|
|----------------------0---------------------------------0-------0---------|
|--------------7----------------------------------0------------------------|
|-----------------0h4-----4-4/6-6/7\6-4----------------------0h4---4-4/6-6/|
|---5------5------------------------------5--------------------------------|
|------0----------0---------------------------0------0-------0-------------|


|--------------------------------------------------------------------------| 
|---------------------------0----------------------------------------------|
|--------------------------------------------------------------------------|
|7\6---------0--------0----------------------------------------------------|
|-------7--------4---------------------------------------------------------|
|--------------------------------------------------------------------------|


| /  slide up
| \  slide down
| h  hammer-on
| p  pull-off
| ~  vibrato
| +  harmonic
| x  Mute note
            
Hard to play? Try these video lessons and learn fast. | Correct




comments powered by Disqus
↑ Back to top | Tablatures and chords are parodies/interpretations of the original songs. You may use it for private study, scholarship, research or language learning purposes only