» » »

John Butler Trio, Funky Tonight Bass tabs (ver.1)

Artists:  A B C D E F G H I J K L M N O P Q R S T U V W X Y Z # 

Funky Tonight Bass tabs (ver.1)

John Butler Trio Tabs
 Rating:
4/5 (6 votes)
Funky Tonight lessons Tabs too difficult? Try these video lessons and learn fast
                -------------------------------------------------------------------------------
-------------------------------------------------------------------------------


Tuning: Standard

First verse have a more staccatoed feel (play this up the octave for bass solo without staccato feel)
G|--------------------|--------------------|
D|------5-------------|------5-----7-5-----|
A|-7--7----7-5--5-6-7-|-7--7---7-5-----5-7-|
E|--------------------|--------------------|

Second Verse solo's etc.
G|---------------7-8-9|--------------------|
D|------5-------------|------5-----7-5-----|
A|-7--7----7-5--5-6-7-|-7--7---7-5-----5-7-|
E|--------------------|--------------------|

Bridge
G|--------------------|
D|--------------------|
A|-77------77---------|
E|--------------------|

Chorus
G|--------------------|
D|--------------------|
A|-5h7----------------|
E|------5h7--3h5--3p0-|


| /  slide up
| \  slide down
| h  hammer-on
| p  pull-off
| ~  vibrato
| +  harmonic
| x  Mute note
===============================================================================
            
Submit corrections

comments powered by Disqus
↑ Back to top | John Butler Trio Bass for Funky Tonight. Lyrics for acoustic guitar and electric guitar. Tablatures and chords are parodies/interpretations of the original songs. You may use it for private study, scholarship, research or language learning purposes only