» » »

Attitude Tabs (ver.2)

Artists:  A B C D E F G H I J K L M N O P Q R S T U V W X Y Z # 

Attitude Tabs (ver.2)

John Butler Trio
Rating:
5/5 (2 votes)

Hard to play? Try these video lessons and learn fast.
                Im doing this in standard but its in drop d just move every thing whole step up 
and a capo on 2nd fret

OK definitely best version on the net so here it goes sorry no solo:(

Oh and i cut out alot of the extra finger picking sorry just fill it in your self

--Part marked with * is a e# chord or a G chord in "drop d". just play any  chord that 
cool, im just going to put what i like

e|--------------------------------------------------------------------------|
b|--------------------------------------------------------------------------|
g|--------7-7p5---5----------------------------------5-5/4p0----------------|
d|----5/7-------7---7-5/3p0--3-0-5---5--5-----0--5/7----------3/5\3p0-3-0-5-|
a|---------------------------3-0-5----5--5----0-----------------------3-0-5-|
D|-00-0---------------0------3-0-5--5--5--5---0--0---0-0------0-------3-0-5-|

e|------------------------------------------------5-----5-------------|
b|------------------------------------------------6-----6-------------|
g|-----5h7p5p0------------------------------------5-----5-------------|
d|--0----------7p0--3/5p0------------0-3-0-5------0-----0-----0-3-0-5-|
a|--0----------------------0-3-3/5p0-0-3-0-5--3/5---3/5----5--0-3-0-5-|
D|--0--0-------0----0------0-0-0-----0-3-0-5--0-----0------0--0-3-0-5-|


      Hey man...................................What'd I
e|--------------------------------------------------------------------------|
b|--------------------------------------------------------------------------|
g|--------7-7p5---5----------------------------------5-5/4p0----------------|
d|----5/7-------7---7-5/3p0--3-0-5---5--5-----0--5/7----------3/5\3p0-3-0-5-|
a|---------------------------3-0-5----5--5----0-----------------------3-0-5-|
D|-00-0---------------0------3-0-5--5--5--5---0--0---0-0------0-------3-0-5-|

e|------------------------------------------------5-----5-------------|
b|------------------------------------------------6-----6-------------|
g|-----5h7p5p0------------------------------------5-----5-------------|
d|--0----------7p0--3/5p0------------0-3-0-5------0-----0-----0-3-0-5-|
a|--0----------------------0-3-3/5p0-0-3-0-5--3/5---3/5----5--0-3-0-5-|
D|--0--0-------0----0------0-0-0-----0-3-0-5--0-----0------0--0-3-0-5-|


---Chorus---
    v  v ^  v v ^  v ^ v ^ v ^ v   v ^ v             v  ^ v ^
e|--------------------------------------------------------------|
b|--------------------------------------------------------------|
g|----------7-7-7-----------------------------------------------|
d|--0--0-0--7-7-7--3-3-3-3-3-3-3/5-5-5-5-5-5-5-5-5--11-11-11-11-|
a|--0--0-0--0-0-0--3-3-3-3-3-3-3/5-5-5-5-5-5-5-5-5--11-11-11-11-|
D|--0--0-0--0-0-0--3-3-3-3-3-3-3/5-5-5-5-5-5-5-5-5--11-11-11-11-|
            
Hard to play? Try these video lessons and learn fast. | Correct




comments powered by Disqus
↑ Back to top | Tablatures and chords are parodies/interpretations of the original songs. You may use it for private study, scholarship, research or language learning purposes only