>
 >
Im Alright 2

Im Alright 2 Guitar Tabs

Jerryc - Im Alright 2 chords, tabs, tablatures, lyrics

Guitar lessons | Add/correct | Request | Top 50 tabs Artists:  A B C D E F G H I J K L M N O P Q R S T U V W X Y Z 0-9

Im Alright 2 Guitar Tabs – Jerryc

CD, Sheet music, Poster

Do you like Im Alright 2? Share with your friends now
Bass TabsBass Tabs v2TabsTabs v2Tabs v3
E  E  E  E   E  E   E  E      E  E   E  E  E  E   E  E
-------------------------12--|-----11-----9---------------|
-----9-----10-----12---------|------------------12--------|
--9-----9------9------9------|--9------9-----9------9--4--|
-----------------------------|----------------------------|
-----------------------------|----------------------------|
-----------------------------|----------------------------|

  E   E  E  E  Q     E  E     E  E  E  E  H
---------------------7--5--|--4--5--4---------------|
------5-----7--7L----------|-----------7--7L--------|
--4L-----4-----------------|------------------------|
---------------------------|------------------------|
---------------------------|------------------------|
---------------------------|------------------------|

  E  E    E    E   E  E    E    E     E   E   E   E    E   S   S  S  E   E
-----------------------------------|--------------19--17--16h-17p-16-----16--|
--------AH9--AH10--------AH7--AH9--|----------17---------------------19------|
-----------------------------------|-----------------------------------------|
-----9----------------9------------|------18---------------------------------|
--7----------------6---------------|--16-------------------------------------|
-----------------------------------|-----------------------------------------|

  E   E   E   E   E   E   E   E      E   E   E   E    H
----------------------------------|------19--17--19~--19L~--------|
----------12----------17----------|--19---------------------------|
----------------------------------|-------------------------------|
------14----------19----------21--|-------------------------------|
--11----------16----------18------|-------------------------------|
----------------------------------|-------------------------------|

  E  E  E  E  Q     E   E     E   E  E  Q      E  E
---------------------------|-------------------------|
--------9-----------10-----|-------------------------|
--------------11--------9--|--9L--8------------------|
-----9-----9---------------|---------9--6.-----------|
--7------------------------|-------------------9--7--|
---------------------------|-------------------------|

  Q    E  Q      E  E      Q        H        E      E   E  E  E   E  E   E  E
------------------------|------------------------|------------------------------|
------------------------|------------------------|----------------9--10--9------|
------------------------|------------------------|------------11------------9S--|
------------------------|------------------------|---------9--------------------|
--6----7--4.------------|------------------------|------7-----------------------|
-----------------7--5~--|--5L.~-----5--------5L--|--5L--------------------------|

  Q     E  Q    E   E   E       Q    Q     E   E   E   E
----------------12--11------|--/9----12----14--16--17--16--|
------------------------12--|------------------------------|
--11----9--9----------------|------------------------------|
----------------------------|------------------------------|
----------------------------|------------------------------|
----------------------------|------------------------------|

  E   E   E   H         E       E  E  E  E  E  E  E  E     E  E  E  E  E  Q    E
--17--19--21--19--------19L--|-----0--------0--------0--|--------0-------------0--|
-----------------------------|--------7--------7--------|--7--------7--5--5----7--|
-----------------------------|--4--------4--------4-----|-----4--------2--2----4--|
-----------------------------|--------------------------|-------------------------|
-----------------------------|--------------------------|-------------------------|
-----------------------------|--------------------------|-------------------------|

  E   E  E  E  E  E  E  E     E  E  E  E  E  Q    E     E   E  E  E  E  E  E  E
--0L--0--------0--------0--|--------0-------------0--|--0L--0--------0--------0--|
--7L-----7--------7--------|--7--------7--5--5----7--|--7L-----7--------7--------|
--4L--------4--------4-----|-----4--------2--2----4--|--4L--------4--------4-----|
---------------------------|-------------------------|---------------------------|
---------------------------|-------------------------|---------------------------|
---------------------------|-------------------------|---------------------------|

  E  E  E  E  E  Q    E     E   E  E  E  E  E  E  E
--------0-------------0--|--0L--0--------0--------0--|
--7--------7--5--5----7--|--7L-----7--------7--------|
-----4--------2--2----4--|--4L--------4--------4-----|
-------------------------|---------------------------|
-------------------------|---------------------------|
-------------------------|---------------------------|

  E  E  E  E  H            W                  Q    E  E   H
--------0---------------|-----------------|------------------------|
--7--------7------------|-----------------|--/7----9--10--10b------|
-----4--------4~--------|--4L~------------|------------------------|
------------------------|-----------------|------------------------|
------------------------|-----------------|------------------------|
------------------------|-----------------|------------------------|

  E   E   E  H         E       H           Q     E   E
----------------------------|---------------------------|
--12--10--5--5~--------5L~--|--5L~--------/12----10--9--|
----------------------------|---------------------------|
----------------------------|---------------------------|
----------------------------|---------------------------|
----------------------------|---------------------------|

  E   E  E  H        E      H         H
-------------------------|--11--------12--------|
--9L--7--5--7--------7L--|----------------------|
-------------------------|----------------------|
-------------------------|----------------------|
-------------------------|----------------------|
-------------------------|----------------------|

  E    Q     Q     Q     E      Q        Q       Q        E   E   H
--12L--17----16----14----12--|--12L.-----14.-----16----|--17--16--14.----------|
-----------------------------|-------------------------|-----------------------|
-----------------------------|-------------------------|-----------------------|
-----------------------------|-------------------------|-----------------------|
-----------------------------|-------------------------|-----------------------|
-----------------------------|-------------------------|-----------------------|

  E  E  E  E  E   E  E   E      E    E   E   E  E   E    Q         W
-----------------------------|------------------12--11----------|----------------|
--------7--9--10--9--10--12--|--12L--12--10--9----------/14~----|--14L~----------|
-----------------------------|----------------------------------|----------------|
-----9-----------------------|----------------------------------|----------------|
--7--------------------------|----------------------------------|----------------|
-----------------------------|----------------------------------|----------------|

  E  E  E  E  E   E   E      E   E   H          Q         S  S  H         Q
--------7--9--11--12--14--|--12--14--16---------16L----|--14-12-14--------14L.-----|
--------------------------|----------------------------|---------------------------|
--------------------------|----------------------------|---------------------------|
-----9--------------------|----------------------------|---------------------------|
--7-----------------------|----------------------------|---------------------------|
--------------------------|----------------------------|---------------------------|

  E  E  E   E   E   E   Q         W                  E   E   E   E   E   E   Q
--------12--17--16------19b----|--19--------------|--------------------------12----|
-----9--------------17---------|------------------|----------14------16------------|
--6----------------------------|------------------|--------------------------------|
-------------------------------|------------------|------14------14------14--------|
-------------------------------|------------------|--12----------------------------|
-------------------------------|------------------|--------------------------------|

  E   E   E   E   H             E   E   E   E   E   E   E
-----------------------------|------------------------------|
----------14--16--16br~------|----------16------17------19--|
-----------------------------|------------------------------|
------16---------------------|------16------16------16------|
--13-------------------------|--14--------------------------|
-----------------------------|------------------------------|

  E   E   E   E   H             Q     E   Q     E   Q
-----------------------------|----------------------------|
----------16--17--19~--------|--17----16--16----14--14----|
-----------------------------|----------------------------|
------18---------------------|--18----16--16----14--14----|
--15-------------------------|--16----14--14----12--12----|
-----------------------------|----------------------------|

  H        Q      Q         E  E  E  E  E  E  E   E
--0--------0L------------|----------------------------|
--0--------0L------------|--------4--------7----------|
--2--------2L----(8)s----|----------------------------|
--2--------2L----(7)s----|-----4--------9---------16--|
--0--------0L------------|--2--------6--------14------|
-------------------------|----------------------------|

  E   E   E   E   H            E  E  E  E  E   E   E   E
------------------19~-------|----------------------11--12--|
--16----------19------------|--------9---------12----------|
----------------------------|--------------11--------------|
----------21----------------|-----9-----9------------------|
------18--------------------|--7---------------------------|
----------------------------|------------------------------|

  E   E   E   E    E   S   S  S  E   E      E   E   E   E   E   E   E   E
--------------19--17--16h-17p-16---------|----------------------------------|
----------17---------------------19--17--|----------12----------14--16--17--|
-----------------------------------------|----------------------------------|
------18---------------------------------|------14----------14--------------|
--16-------------------------------------|--11----------12------------------|
-----------------------------------------|----------------------------------|

  E   E   E   Q       E   E   E      E   E   E   E   E   E   E   E
----------------------------------|--------------------------16--17--|
----------17--16br----------------|----------21----------19----------|
----------------------16----------|----------------------------------|
------18------------------16------|------21----------21--------------|
--16--------------------------14--|--19----------18------------------|
----------------------------------|----------------------------------|

  E   E   E   E   E   E   E   E      E   E   E   E   E   E   E   E
----------------------------------|----------------------------------|
----------17--16------------------|----------12----------14--16--17--|
------------------16--------------|----------------------------------|
------18--------------16--14--13--|------14----------14--------------|
--16------------------------------|--11----------12------------------|
----------------------------------|----------------------------------|

  E   E   E   E    E   E   E   E       E  E  E  E  E  E  E  E
-------------------------------19~--|--------------------------|
----------17---------------19-------|--------------------------|
------------------------------------|--9-----------------------|
------18---------------21-----------|-----9--9--9--9-----------|
--16----------16S--18---------------|-----------------9--9--6--|
------------------------------------|--------------------------|

  E  E  H             E   E   E   Q        E   E   E
-------------------|------12------12br~----12--11--19--|
-------------------|--12------12-----------------------|
-------------------|-----------------------------------|
-------------------|-----------------------------------|
--7--6-------------|-----------------------------------|
--------9.~--------|-----------------------------------|

  E    E   E   H         E       E  Q    E  Q     E  E      E    E  Q     E   E   Q
--19L--17--16--14--------14L--|--------------------------|------------------------------|
------------------------------|--------------------------|------------------------------|
------------------------------|--------------------------|----------------11--13--14----|
------------------------------|-----9-------11-------13--|--13L-----14------------------|
------------------------------|--7-------7--------7------|-------7----------------------|
------------------------------|--------------------------|------------------------------|

  Q      S   H         S   S  S     E   E   E  Q        Q
---------------------------------|------------------------------|
---------------------------------|-------------12.-----(12)/----|
--14L----14L-14--------14L-14-11-|--13--11--9-------------------|
---------------------------------|------------------------------|
---------------------------------|------------------------------|
---------------------------------|------------------------------|

  S  S  E  E  S  S  E  E  S  S  E     E  S S  S S  S  S  H
-----------------------------------|------------------12-14~---------|
-----------------------------------|---------------12----------------|
-----------------------------------|----------9-11-------------------|
--------9--9--------9--9--------9--|--9--9-11------------------------|
--9h-11-------9h-11-------9h-11----|---------------------------------|
-----------------------------------|---------------------------------|

  E   E   E  S   S   S   S  S   S  S   S  S  S  S  S  S  S  S
 |----3----|               |-----------------11---------------|
--12--11--9--11h-12p-11h-12------------------------------------|
----------------------------10p-9h-10p-9p-7p-5p-4h-5h-7h-9h-10-|
---------------------------------------------------------------|
---------------------------------------------------------------|
---------------------------------------------------------------|
---------------------------------------------------------------|

  E   S   S  E   E   Q    E   E      E   H             S  S
-------------12--11--9----12--14--|--16--17.~----------17-16-|
--14--12h-14----------------------|--------------------------|
----------------------------------|--------------------------|
----------------------------------|--------------------------|
----------------------------------|--------------------------|
----------------------------------|--------------------------|

  E   H              E        E   E   E   Q      Q      E
--14--14.b~----------14L~--|----------19--17S----16S----12--|
---------------------------|------17------------------------|
---------------------------|--16----------------------------|
---------------------------|--------------------------------|
---------------------------|--------------------------------|
---------------------------|--------------------------------|

  E    E   E   E   E   E  E  E     E  E  E  Q    E  E  E
--12L---------------------------|-------------------------|
-------16--12-------------------|--------9----------7-----|
---------------11--9S--8--------|-------------------------|
--------------------------9--9--|-----9----------9--------|
--------------------------------|--7--------6----------4--|
--------------------------------|-------------------------|

  E   E  E  Q    Q         E  E  E  Q    E  Q  
------------------------|-------------------------|
------------------------|--------9----------7-----|
------------5----5.-----|-------------------------|
------7--7--------------|-----9----------9--------|
--4L--------------------|--7--------6-------------|
------------------------|-------------------------|

  Q    Q    Q   E  E     E   E  E  E  Q    E  E     Q    E  E  H
----------------------|--------------------------|----------------------|
--5----5----5---5--5--|--5L--------9----------7--|-------------5--------|
--9----8----6---8--9--|--9L----------------------|----------6-----------|
----------------------|---------9----------9-----|-------7--------------|
----------------------|------7--------6----------|--4-------------------|
----------------------|--------------------------|----------------------|

  Q       Q    Q    E     E   Q    E  H           W
--0.------0----0----0--|--0L--0-------0--------|--0L-------------|
--10.-----9----7----5--|--5L--4-------0--------|--0L-------------|
-----------------------|-----------9--9--------|--9L-------------|
-----------------------|--------------9--------|--9L-------------|
-----------------------|--------------7--------|--7L-------------|
-----------------------|-----------------------|-----------------|

  W
--0L-------------|
--0L-------------|
--9L-------------|
--9L-------------|
--7L-------------|
-----------------|





Comments


Popular Jerryc tabs & chords
Canon Rock 1 Bass Tabs
Im Alright Bass Tabs
Alien Walker Intro Tabs
Canon Rock Tabs
Rock On Tabs
Rock On Intro Tabs
Wedding In The Dream Tabs
Whose Autumn Intro Tabs
Whose Autumn Intro 1 Tabs
Canon Rock Ukulele


Song lyrics



↑ Back to top | Tablatures and chords are parodies/interpretations of the original songs. You may use it for private study, scholarship, research or language learning purposes only
© 2014 AZChords.com Contact us | Privacy policy | DMCA | Add/correct tabs | Request tabs | Top 50 tabs