>
 >
Im Alright 1

Im Alright 1 Guitar Tabs

Jerryc - Im Alright 1 chords, tabs, tablatures, lyrics

Guitar lessons | Add/correct | Request | Top 50 tabs Artists:  A B C D E F G H I J K L M N O P Q R S T U V W X Y Z 0-9

Im Alright 1 Guitar Tabs – Jerryc

CD, Sheet music, Poster

Do you like Im Alright 1? Share with your friends now
Bass TabsBass Tabs v2TabsTabs v2Tabs v3
I'M ALRIGHT by JerryC


Hello to all..this tab is not perfect at all but this can help you
to play easier the song I’m alright by jerryC...
hope you like this...enjoy!


I have a backtrack of this song..




e|-------------------------------11-12------------19-17—16h17p16-----------|
B|-------------------9--------12---------------17-----------------19-17----|
G|-------------------------11----------------------------------------------|
D|-----------------9---9--------------------18-----------------------------|
A|---9\--------/7------------------------16--------------------------------|
E|-------------------------------------------------------------------------|

E|--------------------------------------------------------------|
B|---------12----------14-16-17-------17-16b--------------------|
G|--------------------------------------------16----------------|
D|------14--------14---------------18------------16-------------|
A|--11--------12----------------16------------------14----------|
E|--------------------------------------------------------------|

e|----------------------16-17-----------------------------------|
B|---------21-------19---------------17-16----------------------|
G|-----------------------------------------16-------------------|
D|------21-------21---------------18----------16---14\13--------|
A|---19-------18---------------16-------------------------------|
E|--------------------------------------------------------------|
                                                        
e|-------------------------------------------------19\-------|
B|---------12----------14-16-17--------17-------19-----------|
G|-----------------------------------------------------------|
D|------14---------14---------------18-------21--------------|
A|--11---------12----------------16-------18-----------------|
E|-----------------------------------------------------------|

e|-------------------------------11-12------------19-17—16h17p16-----------|
B|-------------------9--------12---------------17-----------------19-17----|
G|-------------------------11----------------------------------------------|
D|-----------------9---9--------------------18-----------------------------|
A|---9\--------/7------------------------16--------------------------------|
E|-------------------------------------------------------------------------|

E|--------------------------------------------------------------|
B|---------12----------14-16-17-------17-16b--------------------|
G|--------------------------------------------16----------------|
D|------14--------14---------------18------------16-------------|
A|--11--------12----------------16------------------14----------|
E|--------------------------------------------------------------|

e|----------------------16-17-----------------------------------|
B|---------21-------19---------------17-16----------------------|
G|-----------------------------------------16-------------------|
D|------21-------21---------------18----------16---14\13--------|
A|---19-------18---------------16-------------------------------|
E|--------------------------------------------------------------|

e|-------------------------------------------------19\-------|
B|---------12----------14-16-17--------17-------19-----------|
G|-----------------------------------------------------------|
D|------14---------14---------------18-------21--------------|
A|--11---------12----------------16-------18-----------------|
E|-----------------------------------------------------------|

e|-----------------------------------------------------------------------------------|
B|---------14----16----17-------14-16-17~\---------16----17----19--------16-17-19~\--|
G|-----------------------------------------------------------------------------------|
D|------14----14-------------14-----------------16----16-------------16--------------|
A|--/12-------------12----13----------------/14-------------14----15-----------------|
E|-----------------------------------------------------------------------------------|


e|-------------------------------------------------------------------19\-----|
B|----7-----------------------------4-------7---------16----------19---------|
G|---xx--16--16--14--14--2-/-------------------------------------------------|
D|---18--16--16--14--14--2-/------4-------9--------16---------21-------------|
A|---16--14--14--12--12--0-/----2------/6------/14--------/18----------------|
E|---------------------------------------------------------------------------|


e|--------16----14-19----------------19-17—16h17p16--------------|
B|--------------------16-17-------17----------------19--17-------|
G|-----16----16--------------------------------------------------|
D|--14-------------------------18--------------------------------|
A|--------------------------16-----------------------------------|
E|---------------------------------------------------------------|

e|-------------------------------------19/21--19-19----|
B|--------12--------14-16-17-------17------------------|
G|-----------------------------------------------------|
D|-----14-------14--------------18---------------------|
A|--11-------12--------------16------------------------|
E|-----------------------------------------------------|

e|----------------------16-17-----------------------------------|
B|---------21-------19---------------17-16----------------------|
G|-----------------------------------------16-------------------|
D|------21-------21---------------18----------16---14\13--------|
A|---19-------18---------------16-------------------------------|
E|--------------------------------------------------------------|

e|-------------------------------------------------19\-------|
B|---------12----------14-16-17--------17-------19-----------|
G|-----------------------------------------------------------|
D|------14---------14---------------18-------21--------------|
A|--11---------12----------------16-------18-----------------|
E|-----------------------------------------------------------|

1min:04sec

e|------------------------------------------------------------------14-16-17-19-19b-19-19~--|
B|--5~-4-5+----------------------------9b--------/14~--14-16-17--17-------------------------|
G|-----------------11x--------9~--11\------11-9---------------------------------------------|
D|----------6-7\-----------9x---------------------------------------------------------------|
A|----------------------9x------------------------------------------------------------------|
E|------------------------------------------------------------------------------------------|

e|-------------------------------------------------------------------16-17-16-------19~\--|
B|--5~--5---5—5/7------7-9-9b-7--5--7~--7/17~--17----17--19-------19----------19-17-------|
G|--------4-------4-4-----------------------------16--------16-16-------------------------|
D|----------------------------------------------------------------------------------------|
A|----------------------------------------------------------------------------------------|
E|----------------------------------------------------------------------------------------|


1min:33sec

e|------------------12---11---9------------------------------------------|
B|----9---10---12------------------12------5---5/7--10b--9-10-9--7~\-----|
G|--9---9----9----9----9----9---------9--4---4---------------------------|
D|-----------------------------------------------------------------------|
A|-----------------------------------------------------------------------|
E|-----------------------------------------------------------------------|

e|-----------------------------19-17-16h17p16--14-16------------------------------19-17-19~\--|
B|------9-10-----7-9--------17-----------------------------12---------17-------19-------------|
G|--------------------------------------------------------------------------------------------|
D|----9--------9---------18-----------------------------14---------18-------21----------------|
A|--7--------8--------16-----------------------------11--------/16------/18-------------------|
E|--------------------------------------------------------------------------------------------|

e|-----------------------------------------------------------|
B|------9---7--10-5-4----------------------------------------|
G|-----------------------------------------------------------|
D|----9---9------------4/6--4-2-1--2-------------------------|
A|--7---------------------------------2/4--2--2h15p2/--------|
E|-----------------------------------------------------------|

e|----------------------------12-11-------12--14-16-17--16-17-19-19b-------|
B|------7--9/10-9-------------------12/14----------------------------------|
G|----------------9-9/11-9-9-----------------------------------------------|
D|----9--------------------------------------------------------------------|
A|--7----------------------------------------------------------------------|
E|-------------------------------------------------------------------------|


2min:03sec

e|-----0-0-----0-----0----0-0--0-0-----0------0-----0----0-0--0-0-----0-----0-----0------|
B|-----7---7-----7-----7--5-5--7---7------7-----7-----7--5-5--7---7-----7-----7-----7----|
G|--4--4-----4-----4------2-2--4-----4------4-----4------2-2--4-----4-----4-----4--------|
D|---------------------------------------------------------------------------------------|
A|---------------------------------------------------------------------------------------|
E|---------------------------------------------------------------------------------------|

e|--0-0--0-0-----0-----0---------|
B|--5-5--7---7-----7-----7---7---|
G|--2-2--4-----4-----4-----4-----|
D|-------------------------------|
A|-------------------------------|
E|-------------------------------|

e|---------------------------------------------------16b------------16-17-16---------|
B|------9h10-10b---------/12-10-9-----------/16~-17~-----19-17~--19----------19~-----|
G|--/11----------9~-9~\-----------11-9-11~-------------------------------------------|
D|-----------------------------------------------------------------------------------|
A|-----------------------------------------------------------------------------------|
E|-----------------------------------------------------------------------------------|

e|------------------------------12-11--------------------------------------------------|
B|------7-9-10--9-10-/12--10-9--------12/14~---------14-16-17-19--17-19-19b-19p17h19~--|
G|-------------------------------------------------------------------------------------|
D|----9-------------------------------------------16-----------------------------------|
A|--7-----------------------------------------/14--------------------------------------|
E|-------------------------------------------------------------------------------------|

e|------------17-16-----19b~---|
B|---------17-------17---------|
G|-----------------------------|
D|------18---------------------|
A|--/16------------------------|
E|-----------------------------|

2min:47sec

e|----------------------------------------------------------------------------------------------|
B|---------14----16----17--------14-16-16h17p16h17p16\--------16----17----19--------16-17-19~\--|
G|----------------------------------------------------------------------------------------------|
D|------14----14--------------14---------------------------16----16--------------16-------------|
A|--/12-------------12-----13--------------------------/14-------------14-----15----------------|
E|----------------------------------------------------------------------------------------------|

e|-------------------------------------------------------------------19\-----|
B|----7-----------------------------4-------7---------16----------19---------|
G|---xx--16--16--14--14--2-/-------------------------------------------------|
D|---18--16--16--14--14--2-/------4-------9--------16---------21-------------|
A|---16--14--14--12--12--0-/----2------/6------/14--------/18----------------|
E|---------------------------------------------------------------------------|

e|-------------------------------11-12------------19-17—16h17p16-----------|
B|-------------------9--------12---------------17-----------------19-17----|
G|-------------------------11----------------------------------------------|
D|-----------------9---9--------------------18-----------------------------|
A|-------------/7------------------------16--------------------------------|
E|-------------------------------------------------------------------------|

E|--------------------------------------------------------------|
B|---------12----------14-16-17-------17-16b--------------------|
G|--------------------------------------------16----------------|
D|------14--------14---------------18------------16-------------|
A|--11--------12----------------16------------------14----------|
E|--------------------------------------------------------------|

e|------------------------16-17-----------------------------------|
B|------------21-------19----------------17-16--------------------|
G|--------------------------------------------16------------------|
D|---------21-------21----------------18----------16---14\13------|
A|---18/19-------18---------------16------------------------------|
E|----------------------------------------------------------------|

e|-------------------------------------------------19\-------|
B|---------12----------14-16-17--------17-------19-----------|
G|-----------------------------------------------------------|
D|------14---------14---------------18-------21--------------|
A|--11---------12----------------16-------18-----------------|
E|-----------------------------------------------------------|

3min:17sec

e|-------------------------------------------------19~-17-16-----------|
B|--5-5-5-4-4-2-2----------------17----19~--17-16------------19~\------|
G|----------------1-2p1-------16----16---------------------------------|
D|----------------------2/4--------------------------------------------|
A|---------------------------------------------------------------------|
E|---------------------------------------------------------------------|

3min:25sec

e|------------------------------------------------------|
B|-------------------------7-9-9b-9b-9p7-9-7---7/12-/---|
G|-----------------8----9--------------------9----------|
D|-----9----11------------------------------------------|
A|--/7---/7-----/7---/7---------------------------------|
E|------------------------------------------------------|

e|----------------------------------------------12b---|
B|-----------------------------------------9h10-------|
G|---------9-9------9-9------9-9------9h11------------|
D|--9—9h11-----9h11-----9h11-----9h11-----------------|
A|----------------------------------------------------|
E|----------------------------------------------------|

e|--12-11-9-11-12-11-------------------------9-9h11h12-11-9---|
B|-------------------10-9-10-9-7---7-9-10-12------------------|
G|-------------------------------9----------------------------|
D|------------------------------------------------------------|
A|------------------------------------------------------------|
E|------------------------------------------------------------|

e|--11-12-14-14b—16p14----16~\---------19-17-16--/12-11---------------|
B|---------------------17-----------17------------------12------------|
G|------------------------------/16------------------------11-9-8-----|
D|----------------------------------------------------------------9\--|
A|--------------------------------------------------------------------|
E|--------------------------------------------------------------------|

3min:46sec

e|--------------------------------------------0-0-0-0-0---|
B|--------9-------7--------5-------9-------7--5-4-2-4-5---|
G|--------------------------------------------------------|
D|------9------9---------7-------9-------9----------------|
A|---/7------6-------4-4------/7-------6------------------|
E|--------------------------------------------------------|

e|-------------------------5--5-4-0-0-0-0-0---|
B|-------9------7-------------5-4-7-5-4-5-5---|
G|--------------------------------4-4-4-4-4---|
D|-----9------9---------7---------------------|
A|--/7------6-------4-4-----------------------|
E|--------------------------------------------|

Ok. . .that’s all. . .there are some mistakes here and try to correct it. . .



| /  slide up
| \  slide down
| h  hammer-on
| p  pull-off
| ~  vibrato
| +  harmonic
| x  Mute note
===============================================================================





Comments


Popular Jerryc tabs & chords
Canon Rock 1 Bass Tabs
Canon Rock 5 Bass Tabs
Im Alright Bass Tabs
Im Alright 1 Bass Tabs
Canon Rock Chords
Canon Rock 5 Tabs
Rock On Tabs
Wedding In The Dream 1 Tabs
Whose Autumn Tabs
Canon Rock Ukulele


Song lyrics



↑ Back to top | Tablatures and chords are parodies/interpretations of the original songs. You may use it for private study, scholarship, research or language learning purposes only
© 2014 AZChords.com Contact us | Privacy policy | DMCA | Add/correct tabs | Request tabs | Top 50 tabs