» » »

Im Alright Bass tabs (ver.2)

Artists:  A B C D E F G H I J K L M N O P Q R S T U V W X Y Z # 

Im Alright Bass tabs (ver.2)

Jerryc
Rating:
0/5 (0 votes)

Hard to play? Try these video lessons and learn fast.
                I'M ALRIGHT by JerryC(bass)


Hello to all..this tab is not perfect at all but this can help you
to play easier the song I’m alright by jerryC...
hope you like this...enjoy!...Hi nga Pla sa Mga Tga Liceo de cabuyao Jan...





G|-------------------------------------------------------------------------|
D|-------------------------------------------------------------------------|
A|---777777777777---777-6666-44444444--------444-2222----------------------|x2
E|0~----------------------------------444-5555-----------------------------|

G|-------------------------------------------------------------------------|
D|-------------------------------------------------------------------------|
A|---00000~--11111~--22222~--33333~----4-22-00--------222222222222---------|
E|---------------------------------------------0~--------------------------|

G|-------------------------------------------------------------------------|
D|-------------------------------------------------------------------------|
A|------------------777-6666-44444444--------444-2222----------------------|x2
E|-----------------------------------444-5555------------------------------|

G|-------------------------------------------------------------------------|
D|-------------------------------------------------------------------------|
A|---444444444444--5555--------------444444444444--5555--------------------|
E|---------------------44444444------------------------44444444------------|

G|-------------------------------------------------------------------------|
D|-------------------------------------------------------------------------|
A|-------------------------2-2-222-----------------------------------------|x2
E|--2-2-222-4-4-444-5-5-555------------------------------------------------|

G|-------------------------------------------------------------------------|
D|-------------------------------------------------------------------------|
A|------------------777-6666-44444444--------444-2222----------------------|x4
E|-----------------------------------444-5555------------------------------|

G|-------------------------------------------------------------------------|
D|-------------------------------------45420-------------------------------|
A|--2-2-2-2-2-2-00-2-2-2-2-2-2-2-00-2-2-----00-2-2-2-2-2-2-----------------|
E|-------------------------------------------------------------------------|

G|-------------------------------------------------------------------------|
D|-------------------------------------------------------------------------|
A|--4-4-444-------7-7-777-6-6-666----4-4-444-------7-7-777-6-4-2-0---------|x2
E|---------4-4-444--------------------------4-4-444------------------------|

G|-------------------------------------------------------------------------|
D|-------------------------------------------------------------------------|
A|---00000~--11111~--22222~--33333~----4-22-00--------222222222222---------|
E|---------------------------------------------0~--------------------------|

Rest(guitar solo)

G|-------------------------------------------------------------------------|
D|-------------------------------------------------------------------------|
A|------------------777-6666-44444444--------444-2222----------------------|x5
E|-----------------------------------444-5555------------------------------|

(outro)

G|-------------------------------------------------------------------------|
D|-------------------------------------------------------------------------|
A|--2222222222222222---7777777777777777---2222222222222222-777-6-4-2-0-----| 
E|---------------------------------------------------------------------00~-|





Tapus na......snxa NA first Tab ko po yan eh...
            
Hard to play? Try these video lessons and learn fast. | Correct




comments powered by Disqus
↑ Back to top | Tablatures and chords are parodies/interpretations of the original songs. You may use it for private study, scholarship, research or language learning purposes only