» » »

Jerryc, Im Alright Bass tabs (ver.1)

Artists:  A B C D E F G H I J K L M N O P Q R S T U V W X Y Z # 

Im Alright Bass tabs (ver.1)

Jerryc Tabs
Rating:
0/5 (0 votes)
Im Alright lessons Tabs too difficult? Try these video lessons and learn fast
                Eighth notes

G|---------------------------------------------------------------------------------------|
D|-------------------------11-11-11-11-11-11-11-11---------------------------------------|
A|---7-7-7-7-7-7-7-7---------------------------------------11-11-11-11-12-12-12-12-------|
E|---------------------------------------------------------------------------------------|

G|----------------------------9-9-9-9--8-8-8-8----------------------------------------|
D|----11-11-11-11--9-9-9-9---------------------11-11-11-11--9-9-9-9-------------------|
A|------------------------------------------------------------------------------------|
E|------------------------------------------------------------------------------------|

G|---------------------------------------------------------------------------------------|
D|---------------------------------------11-11-11-11--13-13-13-13------------------------|
A|----11-11-11-11--12-12-12-12-----------------------------------------------------------|
E|---------------------------------------------------------------------------------------|

G|---------------------------------------------------------------------------------------|
D|-------------------------11-11-11-11-11-11-11-11---------------------------------------|
A|---7-7-7-7-7-7-7-7---------------------------------------11-11-11-11-12-12-12-12-------|
E|---------------------------------------------------------------------------------------|

G|----------------------------------9-9-9-9--8-8-8-8---------------------------------|
D|----11-11-11-11--9-9-9-9----------------------------11-11-11-11--9-9-9-9-----------|
A|-----------------------------------------------------------------------------------|
E|-----------------------------------------------------------------------------------|

G|-----------------------------------------------------------------------------------|
D|---------------------------------------11-11-11-11--13-13-13-13--------------------|
A|----11-11-11-11--12-12-12-12-------------------------------------------------------|
E|-----------------------------------------------------------------------------------|

G|---------------------------------------------------------------------------------------|
D|---7-7-7-7-7-7-7-7-8-8-8-8-8-8-8-8-9-9-9-9-9-9-9-9-10-10-10-10-10-10-10-10-------------|
A|---------------------------------------------------------------------------------------|
E|---------------------------------------------------------------------------------------|

G|----------------------------------------------------------------------8-------------------------------|
D|---11--9-9--7-7---------------------------------------------9-----------------------------------------|
A|-------------------0---------------------------2---6--------------------------------------------------|
E|------------------------------------------------------------------------------------------------------|


G|---------------------------------------------------------------------------------------|
D|-------------------------11-11-11-11-11-11-11-11---------------------------------------|
A|---7-7-7-7-7-7-7-7---------------------------------------11-11-11-11-12-12-12-12-------|
E|---------------------------------------------------------------------------------------|

G|----------------------------------9-9-9-9--8-8-8-8---------------------------------|
D|----11-11-11-11--9-9-9-9----------------------------11-11-11-11--9-9-9-9-----------|
A|-----------------------------------------------------------------------------------|
E|-----------------------------------------------------------------------------------|

G|-----------------------------------------------------------------------------------|
D|---------------------------------------11-11-11-11--13-13-13-13--------------------|
A|----11-11-11-11--12-12-12-12-------------------------------------------------------|
E|-----------------------------------------------------------------------------------|
            
Submit corrections

comments powered by Disqus
↑ Back to top | Jerryc Bass for Im Alright. Lyrics for acoustic guitar and electric guitar. Tablatures and chords are parodies/interpretations of the original songs. You may use it for private study, scholarship, research or language learning purposes only