» » »

Pigs In Zen Bass tabs (ver.2)

Artists:  A B C D E F G H I J K L M N O P Q R S T U V W X Y Z # 

Pigs In Zen Bass tabs (ver.2)

Janes Addiction
Rating:
5/5 (1 vote)

Tabs too difficult? Try these video lessons and learn fast.
                Pigs in Zen

Here's the basics for this song, and you can do your own little variations 
on the parts, because Eric Avery does a lot of little things and I'm not 
going to waste my time tabbing them out because it just doesn't matter 
that much, you should be able to improvise and have fun with it on your 
own without having to copy him detail for detail.

Intro

General fooling around, then this right before it starts...

		 Guitar comes in...
|---------------|----------------|
|---------------|----------------|
|---------------|----------------|
|-3--3-3--3-3-3-|-3--3-3--3-3-3--|

Main Riff
		x?
|-----------------|
|*---------------*|
|*-----------2-0-*|
|--0-2--0-2-------|

This main riff is really simple, but you can do some nice fills with it

Chorus
		   x?
|--------------------|
|*------------------*|
|*------2-2-2-2-2-2-*|
|--2-2---------------|

Then back to the main riff, then chorus, etc. and right before the solo 
comes this

                                         x2?
|----------------------------|---------------|
|*--------5p3----------------|-Main Riff x2-*|
|*-5-5-5-5---5p3-2-2-2-2-2-2-|--------------*|
|----------------------------|---------------|

And on the third? time you play it, play this instead of the main riff
  E|000000000000|
                Take off...(Solo)

And for the solo, just play the main riff over and over, then the chorus, 
then they break it down to just the bass and drums, etc... just listen to 
the song and you'll know what to play.
            
Tabs too difficult? Try these video lessons and learn fast.


comments powered by Disqus
↑ Back to top | Tablatures and chords are parodies/interpretations of the original songs. You may use it for private study, scholarship, research or language learning purposes only