» » »

Pigs In Zen Tabs (ver.1)

Artists:  A B C D E F G H I J K L M N O P Q R S T U V W X Y Z # 

Pigs In Zen Tabs (ver.1)

Janes Addiction
Rating:
0/5 (0 votes)

Hard to play? Try these video lessons and learn fast.
                Band- Jane's Addiction
Song- Pigs in Zen
Album- Nothing's Shocking

I really like this song, and when i went to look for tabs
I only found bass tabs. So one day i decided to figure it.
put myself. Im not sure about th chrous but its close
enough to me. I suck at tabbing solos so I decided not
to even try. 

This song uses distortion (obviously). Usually i leave the
distortion on my amp at 7 for this song


Intro- Begins with bass, then the guitar does this

e--------------------------------------
b--------------------------------------
g------7-------------------------------    basically just bend
d--------------------------------------    this not up and down
a--------------------------------------
E--------------------------------------

Main Riff/ Verse

e--------------------------------------
b--------------------------------------
g--------------------------------------    repeat as needed
d--------------------------------------
a--------------------------------------
E--0-2-xx-0-2-xx--5--2-----------------

Chorus ("im talkin bout the pig....)

e--------------------------------------
b--------------------------------------
g--------------------------------------
d--5-5-5---7-7--5-5-5--7-7--5----------
a--5-5-5---7-7--5-5-5--7-7--5----------
E--3-3-3---5-5--3-3-3--5-5--3----------

then there is that part when perry talks for awhile,
during that just play
e--------------------------------------
b--------------------------------------
g--------------------------------------
d--------------------------------------
a--------------------------------------
E--0---2--------------------------------
pm......

sometimes

e--------------------------------------
b--------------------------------------
g--------------------------------------
d--------------------------------------
a---2---4------------------------------
E---0---2------------------------------
pm.......
            
Hard to play? Try these video lessons and learn fast. | Correct




comments powered by Disqus
↑ Back to top | Tablatures and chords are parodies/interpretations of the original songs. You may use it for private study, scholarship, research or language learning purposes only