» » »

Janes Addiction, Pigs In Zen Tabs (ver.2)

Artists:  A B C D E F G H I J K L M N O P Q R S T U V W X Y Z # 

Pigs In Zen Tabs (ver.2)

Janes Addiction Tabs
 Rating:
4/5 (4 votes)
Pigs In Zen lessons Tabs too difficult? Try these video lessons and learn fast
                This is most of the song, but no guitar 
solos. It is so hard to hear what's being 
played cause of the delay. But I did put
out some suggested scales for the solos.




Tuning: (E,A,D,G,B,e)



Intro:

                         1 step bends
e-|------------------|---------------------------------------|-
B-|------------------|---8)---8)---8)---11)-11--11)----------|-
G-|----Bass-Intro----|--10---10---10----10--10--10-----------|-
D-|-----(In--G)------|---------------------------------------|-
A-|------------------|---------------------------------------|-
E-|------------------|----------------------------------14\--|-




Verse Riff:



e-|---------------------------|----------------------------------|-
B-|---------------------------|----------------------------------|-
G-|---------------------------|----------------------------------|-
D-|------------------x-x-4----|------------------/4-2------------|-
A-|--2--4--x-x-2--4--x-x-2----|--2--4--x-x-2--4-------4-3-2------|-
E-|--0--2--x-x-0--2-----------|--0--2--x-x-0--2-------------5-2--|-
                                                 P.M----------|


e-|---------------------------|------------------------)\~~~~~----|-
B-|---------------------------|---------------------x-4)\~~~~~----|-
G-|---------------------------|---------------------x-4-----------|-
D-|------------------x-x-4----|-----------------------------------|-
A-|--2--4--x-x-2--4--x-x-2----|--2--4--x-x-2--4-------------------|-
E-|--0--2--x-x-0--2-----------|--0--2--x-x-0--2-------------------|-



e-|---------------------------|-----------------------------------|-
B-|---------------------------|-----------------------------------|-
G-|---------------------------|-----------------------------------|-
D-|------------------x-x-4----|------------------2h4-2------------|-
A-|--2--4--x-x-2--4--x-x-2----|--2--4--x-x-2--4--------4-3-2------|-
E-|--0--2--x-x-0--2-----------|--0--2--x-x-0--2--------------5-2--|-
                                                 P.M-----------|


e-|---------------------------|----------------------------------|-
B-|---------------------------|----------------------------------|-
G-|---------------------------|----------------------------------|-
D-|------------------x-x-4----|----------------------------2--4--|-
A-|--2--4--x-x-2--4--x-x-2----|--2--4--x-x-2--4------2-3-4-------|-
E-|--0--2--x-x-0--2-----------|--0--2--x-x-0--2--2-5-------------|-
                                                 P.M----------|


Continue with variations, some of them are shown below.




Chorus:



e-|--------------------------------|--------------------------------|-
B-|--------------------------------|--------------------------------|-
G-|--------------------------------|--------------------------------|-
D-|--------------------4----4------|--------------------4----4------|-
A-|--4----4----x--4----2----2------|--4----4----x--4----2----2------|-
E-|--2----2----x--2----------------|--2----2----x--2----------------|-


e-|--------------------------------|--------------------------------|-
B-|--------------------------------|--------------------------------|-
G-|--------------------------------|--------------------------------|-
D-|--------------------4----4------|--------------------4----4------|-
A-|--4----4----x--4----2----2------|--4----4----x--4----2----2------|-
E-|--2----2----x--2----------------|--2----2----x--2----------------|-


e-|--------------------------------|-----------------------------|-
B-|--------------------------------|-----------------------------|-
G-|--------------------------------|--------(Guitar-Solo)--------|-
D-|--------------------4----4------|-----------------------------|-
A-|--4----4----x--4----2----2------|-----------------------------|-
E-|--2----2----x--2----------------|-----------------------------|-



Then play:


Verse



Chorus 2:



e-|--------------------------------|--------------------------------|-
B-|--------------------------------|--------------------4---5--4----|-
G-|--------------------------------|--------------------4---4--4----|-
D-|--------------------4----4------|--------------------4---4--4----|-
A-|--4----4----x--4----2----2------|--4----4----x--4----------------|-
E-|--2----2----x--2----------------|--2----2----x--2----------------|-


e-|--------------------------------|--------------------------------|-
B-|--------------------------------|--------------------------------|-
G-|--------------------------------|--------------------------------|-
D-|--------------------4----4------|--------------------4----4------|-
A-|--4----4----x--4----2----2------|--4----4----x--4----2----2------|-
E-|--2----2----x--2----------------|--2----2----x--2----------------|-

                                                         * Harmonics  
e-|--------------------------------|-----------------------------------------|-
B-|--------------------------------|-----------------------------------------|-
G-|--------------------------------|------------------------<5>-----<5>------|-
D-|--------------------4----4------|--------------------<5>-----<5>-----<5>--|-
A-|--4----4----x--4----2----2------|--2--4--x-x-2--4-------------------------|-
E-|--2----2----x--2----------------|--0--2--x-x-0--2-------------------------|-




Bridge:
                        

e-|---------------------|-------------------------|----------------|-----------------|-
B-|---------------------|-------------------------|----------------|-----------------|-
G-|---------------------|-------------------------|--(Guitar-solo--|--for-two-bars)--|-
D-|--7------------7--7--|--4------------4--4---4--|----------------|-----------------|-
A-|--5------------5--5--|--2------------2--2---2--|----------------|-----------------|-
E-|---------------------|-------------------------|----------------|-----------------|-


e-|---------------------|-------------------------|----------------|-----------------|-
B-|---------------------|-------------------------|----------------|-----------------|-
G-|---------------------|-------------------------|--(Guitar-solo--|--for-two-bars)--|-
D-|--7------------7--7--|--4------------4--4---4--|----------------|-----------------|-
A-|--5------------5--5--|--2------------2--2---2--|----------------|-----------------|-
E-|---------------------|-------------------------|----------------|-----------------|-




Interlude:



e-|----------------------|----------------------|-
B-|----------------------|----------------------|-
G-|----------------------|----------------------|-
D-|----------------------|----------------------|-
A-|--2--4--------2--4----|--2--4--------2--4----|-
E-|--0--2--------0--2----|--0--2--------0--2----|-

e-|----------------------|----------------------|-
B-|----------------------|----------------------|-
G-|----------------------|----------------------|-
D-|----------------------|----------------------|-
A-|--2--4--------2--4----|--2--4--------2--4----|-
E-|--0--2--------0--2----|--0--2--------0--2----|-




Then play:
 


Chorus:
 


End




Some Variations:



e-|---------------------------|----------------------------------|-
B-|---------------------------|----------------------------------|-
G-|---------------------------|----------------------------------|-
D-|------------------x-x-4----|----------------------------2--4--|-
A-|--2--4--x-x-2--4--x-x-2----|--2--4--x-x-2--4------2-3-4-------|-
E-|--0--2--x-x-0--2-----------|--0--2--x-x-0--2--2-5-------------|-
                                                 P.M----------|

e-|---------------------------|--------------------------------|-
B-|---------------------------|-------------------------4p2----|-
G-|---------------------------|-------------------------4p2----|-
D-|------------------x-x-4----|--------------------2h4---------|-
A-|--2--4--x-x-2--4--x-x-2----|--2--4--x-x-2--4----------------|-
E-|--0--2--x-x-0--2-----------|--0--2--x-x-0--2----------------|-


e-|---------------------------|---------------------------------|-
B-|---------------------------|--------------------2------------|-
G-|---------------------------|--------------------2h3----------|-
D-|------------------x-x-4----|-------------------------4~~~----|-
A-|--2--4--x-x-2--4--x-x-2----|--2--4--x-x-2--4-----------------|-
E-|--0--2--x-x-0--2-----------|--0--2--x-x-0--2-----------------|-


e-|---------------------------|--------------------5--x-4/5--5-5--|-
B-|---------------------------|--------------------5--x-4/5--5-5--|-
G-|---------------------------|-----------------------------------|-
D-|------------------x-x-4----|-----------------------------------|-
A-|--2--4--x-x-2--4--x-x-2----|--2--4--x-x-2--4-------------------|-
E-|--0--2--x-x-0--2-----------|--0--2--x-x-0--2-------------------|-
            
Submit corrections

comments powered by Disqus
↑ Back to top | Janes Addiction Tabs for Pigs In Zen. Lyrics for acoustic guitar and electric guitar. Tablatures and chords are parodies/interpretations of the original songs. You may use it for private study, scholarship, research or language learning purposes only