» » »

Going Underground Bass tabs (ver.3)

Artists:  A B C D E F G H I J K L M N O P Q R S T U V W X Y Z # 

Going Underground Bass tabs (ver.3)

Jam
Rating:
0/5 (0 votes)

Hard to play? Try these video lessons and learn fast.
                G----------------------------------------|
D----5-7-5--------------------------- ---| Intro, Verse
A--------------55-55-55------------------|
E----------------------------------------|

G----------------------------------------------------------|
D---5-7-5---------------------------- :- 2nd part of verse-| (x2)
A----------------------6(x8)-------------------------------|
E------------7(x8)-----------------------------------------|

G-----------------------------6h8-8-8----------------------------|
D-----------11-11-9--------------------------------:- pre-chorus-| (x2)
A----------------------6-----------------------------------------|
E--7-7-7---------------------------------------------------------|

G-------------------------------------------------------|
D----------------------------------:- pre-chorus part 2-|
A-7-7-7-7-7------9-9-9-9-9------------------------------|
E-------------------------------------------------------|

G------------------9-----9--------11-------11-----|
D-------------------------------------------------| chorus
A-------------7-7-----7------9-9-------9----------|
E--7(x10)-----------------------------------------|

(repeat all of this once)

G-------------------------------------------------------|
D--6-6----4-4-------------------------------- :- bridge-| (x4)
A-4-4-4--2-2-2------------------------------------------|
E-------------------------------------------------------|

G---------------------------------------------------------------|
D--------------------------------------------- :- bridge part 2-|
A-6-6-6-6-6-6---7-7-7-7-7-7-------------------------------------|
E--------------------------------2-(x12)------------------------|

(chorus)

G-------------------------------------------------|
D--------------------------------------------- ---| another bride
A-------6-6---------------------------------------|
E--7-7-----------0-0----2-2-----------------------|

G-------------------------------------------------------|
D--6-6----4-4-------------------------------- :- bridge-| (x4)
A-4-4-4--2-2-2------------------------------------------|
E-------------------------------------------------------|


G------------------------------------------------------------------|
D-------------------------------------------------:- bridge part 2-|
A-6-6-6-6-6-6---7-7-7-7-7-7----------------------------------------|
E--------------------------------2(x8)-4-4-5-5-6-6-----------------|

(chorus x2 then this)

G-------------------------------------------------|
D--------------------------------------------- ---| 2nd last chorus
A---------6(x5)-----------------------------------|
E-7(x10)---------2-24-4-5-5-6-6-------------------|

(chorus)

First ever tab. It's a hard song a lot of different parts but i hope it helps  :)
            
Hard to play? Try these video lessons and learn fast. | Correct




comments powered by Disqus
↑ Back to top | Tablatures and chords are parodies/interpretations of the original songs. You may use it for private study, scholarship, research or language learning purposes only