>
 >
 >
Going Underground

Going Underground Guitar Tabs

Jam - Going Underground chords, tabs, tablatures, lyrics

Guitar lessons | Add/correct | Request | Top 50 tabs Artists:  A B C D E F G H I J K L M N O P Q R S T U V W X Y Z 0-9

Going Underground Guitar Tabs – Jam

CD, Sheet music, Poster

Do you like Going Underground? Share with your friends now
Bass TabsBass Tabs v2Bass Tabs v3Bass Tabs v4ChordsChords v2Chords v3TabsTabs v2Ukulele
The jam - going underground

Intro Riff


e----------------------|
B----------------------|
G----2----2-44-764-----|
D-00-0-00-0-00-000-----|
A----------------------|
E----------------------|
PM--   --

Verse

  B     F#                  B     D#m7           E      F#

E-77777-9-9-9-9-9---|-------------1111111111---|-000000-22222-|
B-77777-111111111---|-------------1111111111---|-000000-22222-|
G-88888-111111111---|-pick--88888-1111111111---|-111111-33333-|
D-99999-111111111-x2|scrape-99999-1111111111-x2| 222222-44444-|
A-99999-9-9-9-9-9---|-------99999-1313131313---|-222222-44444-|
E-77777-------------|-------77777-1111111111---|-000000-22222-|

Chorus


E--------1111111111-000000-22222---|
B--------1111111111-000000-22222---|
G--88888-1111111111-111111-33333---|
D--99999-1111111111-222222-44444-x3|
A--99999-1313131313-222222-44444---|
E--77777-1111111111-000000-22222---|

Post 1st chorus

  B  D#m7 E   F#
E-----6---0---2---|
B-----7---0---2---|
G-8---6---1---3---|
D-9---8---2---4---|
A-9---6---2---4---|
E-7-------0---2---|

Back to Intro riff, Verse and Chorus

Post 2nd Chorus

  C#m        B
e-9--9--9----7-7-7--|-9-9-9--9-9-9--777-777--|
B-9--9--9----7-7-7--|-9-9-9--9-9-9--777-777--|
G-9--9--9----8-8-8--|-9-9-9--9-9-9--888-888--|
D-11-11-11---9-9-9x2|-111111-111111-999-999x2|
A-11-11-11---9-9-9--|-111111-111111-999-999--|
E-9--9--9----7-7-7--|-9-9-9--9-9-9--777-777--|
PM-- --      - -      ----   ----   --  --

Lead Break


 Guitar 1            Guitar 2            and also    Guitar 1 overdub
                     C#         F#m7       F#    G#
e-6-7-9-9^(11)-(9)-|-9-9-9-9-9--8-8-8-8-8--22222-44444---|------------------|
B------------------|-9-9-9-9-9--9-9-9-9-9--22222-44444---|-99-9^(11)-(9)-6--|
G------------------|-1010101010-8-8-8-8-8--33333-55555---|------------------|
D------------------|-1111111111-1010101010-44444-66666-x2|----------------x2|
A------------------|-1111111111-8-8-8-8-8--44444-66666---|------------------|
E------------------|-9-9-9-9-9-------------22222-44444---|------------------|


Bridge


e-9--9-11-9-----|---------------|6-7-9-9^(11)-(9)--|
B--12------12---|---------------|------------------|
G---------------|-------------X4|------------------|
D-------------x3|---------------|------------------|
A---------------|--1111----99---|------------------|
G---------------|99----9-77--7--|------------------|

Last Chorus

                                      Guitar 1 overdub on 2nd and 4th time
e--|-9-9-9-9-9--8-8-8-8-8--22222-44444---|------------------|
B--|-9-9-9-9-9--9-9-9-9-9--22222-44444---|-99-9^(11)-(9)-6--|
G--|-1010101010-8-8-8-8-8--33333-55555---|------------------|
D--|-1111111111-1010101010-44444-66666-x4|------------------|
A--|-1111111111-8-8-8-8-8--44444-66666---|------------------|
E--|-9-9-9-9-9-------------22222-44444---|------------------|

End on F#





Comments


Popular Jam tabs & chords
Down In The Tube Station At The Midnight Bass Tabs
Private Hell Bass Tabs
Town Called Malice 3 Bass Tabs
Pity Poor Alfie Chords
Strange Town Chords
But Im Different Now Ukulele
Heatwave Ukulele
In The Crowd Ukulele
Slow Down Ukulele
Wasteland Ukulele


Song lyrics



↑ Back to top | Tablatures and chords are parodies/interpretations of the original songs. You may use it for private study, scholarship, research or language learning purposes only
© 2014 AZChords.com Contact us | Privacy policy | DMCA | Add/correct tabs | Request tabs | Top 50 tabs