» » »

Jam, Going Underground Bass tabs (ver.1)

Artists:  A B C D E F G H I J K L M N O P Q R S T U V W X Y Z # 

Going Underground Bass tabs (ver.1)

Jam Tabs
 Rating:
3.4/5 (5 votes)
Going Underground lessons Tabs too difficult? Try these video lessons and learn fast
                Intro:

G -2-2-/
D --4--/
A -----/
E -----/

----------2-2-/   x6
-----------4--/
-00-00-00-----/
--------------/

Verse: Something’s happening here today…

---------------------------------/---------------------------------/
-----------------1-1-1-1-1-1-1-1-/-----------------1-1-1-1-1-1-1-1-/
-2-2-2-2-2-2-2-2-----------------/-2-2-2-2-2-2-2-2-----------------/
---------------------------------/---------------------------------/

And I’m so happy…

--------------------/--------------------/
-------1--------1---/-------1--------1---/
-2--4-----1-4-1-----/-2--4-----1-4-1-----/
--------------------/--------------------/

To buy nuclear textbooks…

----------------------------1--1-1-2-1---2--2-2-4-2---4--4-4-6-4----/
---------------2--2-2-4-2-------------------------------------------/
-0--0---2--2--------------------------------------------------------/

Chorus: Going underground…

----------------------/--------------------------/   x3
----------------------/--------------------6-----/
-2--4-2-----2--4-2----/-7-7--6-7-7--6-9-9----9-9-/
---------2----------2-/--------------------------/

Some people might get…

----------2-2-/   x4
-----------4--/
-00-00-00-----/
--------------/

Verse: What you see is…

---------------------------------/---------------------------------/
-----------------1-1-1-1-1-1-1-1-/----------------1-1-1-1-1-1-1-1--/
-2-2-2-2-2-2-2-2-----------------/-2-2-2-2-2-2-2-2-----------------/
---------------------------------/---------------------------------/

You choose your leaders…

--------------------/--------------------/
-------1--------1---/-------1--------1---/
-2--4-----1-4-1-----/-2--4-----1-4-1-----/
--------------------/--------------------/

You’ll see kidney machines…

----------------------------1--1-1-2-1---2--2-2-4-2---4--4-4-6-4----/
---------------2--2-2-4-2-------------------------------------------/
-0--0---2--2--------------------------------------------------------/

Chorus: Going underground…

----------------------/--------------------------/   x2
----------------------/--------------------6-----/
-2--4-2-----2--4-2----/-7-7--6-7-7--6-9-9----9-9-/
---------2----------2-/--------------------------/

Bridge:  …for tomorrow…

-------------------/   x4
-------------------/
-------------------/
-9-6-7-9---7-4-6-7-/

The braying sheep…

--------------------------/-----------------/------------------/
-1--1-1--1-1--2--2-2--2-2-/---------------- /------------------/
--------------------------/-----------------/---------1---4----/
--------------------------/-2-2-2-2-2-2-2-2-/-2---4------------/

Going underground…

-----------------------------/------------------------------------/        x2
-----------------------------/---------------------8--------------/
-4-4--3-4-4--3-4-4--3-4-4--3-/-9-9--8-9-9--8-11-11----11-11-------/
-----------------------------/------------------------------------/

Going underground…

-----------------------/-----------------------/
-------1-1-------------/-------1-1-------------/
-2-2-------------------/-2-2-------------------/
-------------0-0---2-2-/-------------0-0---2-2-/

La la la la

---------------------/    x4
---------------------/
-4-4--4-4---2-2--2-2-/
---------------------/

The braying sheep…

--------------------------/-----------------/------------------/
-1--1-1--1-1--2--2-2--2-2-/---------------- /------------------/
--------------------------/-----------------/---------1---4----/
--------------------------/-2-2-2-2-2-2-2-2-/-2---4------------/

Going underground…

-----------------------------/------------------------------------/        x6
-----------------------------/---------------------8--------------/
-4-4--3-4-4--3-4-4--3-4-4--3-/-9-9--8-9-9--8-11-11----11-11-------/
-----------------------------/------------------------------------/
            
Submit corrections

comments powered by Disqus
↑ Back to top | Jam Bass for Going Underground. Lyrics for acoustic guitar and electric guitar. Tablatures and chords are parodies/interpretations of the original songs. You may use it for private study, scholarship, research or language learning purposes only