» » »

Jam, Going Underground Bass tabs (ver.2)

Artists:  A B C D E F G H I J K L M N O P Q R S T U V W X Y Z # 

Going Underground Bass tabs (ver.2)

Jam Tabs
 Rating:
3.4/5 (10 votes)
Going Underground lessons Tabs too difficult? Try these video lessons and learn fast
1
                Going underground – The Jam

Intro
---------------------------/----------------------/---|
---------------------------/----------------------/---|
---------------------------/----------------------/---|
-------------------(5)-4-2-/-0---0---0---0-(5)-4-2/-0-|
---------------------------/----------------------/---|

Verse
-----------------/-----------------/--|
-----------------/-----------------/--|
-2-2-2-2-2-2-2-2-/-----------------/--|            x2
-----------------/-2-2-2-2-2-2-2-2-/--|

-----------------/-----------------/--|
-----------------/-----------------/--|
-2-2-2-2-2-2-2-2-/-4-6-2-2-2-2-2-2-/--|           x2
-----------------/-----------------/--|

-------------------/--------------------/--|
-------------------/-----------1--------/--|
-------------------/-2------------------/--|
--0--0----2--2-----/--------------------/--|

----------------/-----------------/--|
----------------/------------4----/--|
--7--6--2-2-2-2-/--7-7--6---------/--|
----------------/-----------------/--|

Chorus

----------------/-----------------/--|
----------------/-----------------/--|
----------------/-----------------/--|         x3
--7-7---11-11---/--0-0----2-2-----/--|

Bridge
-----------------/-----------------/--|
----------6-6----/----------4------/--|
-----4-4------4--/----2---2---2----/--|
-----------------/-----------------/--|

                      la la-la la

Great song, one of the Jam’s best. Here are all the bits listen to the song to piece them together.
            
Submit corrections

comments powered by Disqus
↑ Back to top | Jam Bass for Going Underground. Lyrics for acoustic guitar and electric guitar. 1 Tablatures and chords are parodies/interpretations of the original songs. You may use it for private study, scholarship, research or language learning purposes only