» » »

Jam, Ghosts Bass tabs (ver.2)

Artists:  A B C D E F G H I J K L M N O P Q R S T U V W X Y Z # 

Ghosts Bass tabs (ver.2)

Jam Tabs
Rating:
0/5 (0 votes)
Ghosts lessons Tabs too difficult? Try these video lessons and learn fast
                file. If you feel that the content of this file may be violating   
copyright law, you may not use the information displayed here in any way.    
##----------------------------------------------------------------------##

 GHOSTS
 
 BASSIST: BRUCE FOXTON

 *=HOLD NOTE

 S=SLIDE
                                   (A)
G|----------------------------------|----------------------------------|
D|----------------------------------|----------------------------------|
A|----------------------------------|----------------------------------|
E|-----------------------------0*---|----------------------------------|
			

                                   (B)
G|----------------------------------|----------6-----------------------|
D|----------------------------------|------6---------------------------|
A|-4-----2-----0--------------------|-4---------------2-----0----------|
E|-------------------0--------------|-----------------------------0----|


                                   (C)
G|----------------------------------|----------------------------------|
D|----------------------------------|----------------------------------|
A|--2-s/------------------7---------|--2-s/-------------------7--------|
E|----------------------------------|----------------------------------|


                                   (D)
G|----------------------------------|----------------------------------|
D|----------------------------------|----------------------------------|
A|--2-s/-------------------7--------|---------------------7-s\---------|
E|----------------------------------|----------------------------------|


                                   (E)
G|----------------------------------|----------------------------------|
D|----------------------------------|----------------------------------|
A|-4-----2-----0--------------------|-4-s\------2-----0----------------|
E|-------------------0--------------|-----------------------0----------|



                                   (F)
G|----------------------------------|----------------------------------|
D|----------------------------------|----------------------------------|
A|--2-s/-------------------7--------|--2-s/-------------------7--------|
E|----------------------------------|----------------------------------|


                                   (G)
G|----------------------------------|----------------------------------|
D|----------------------------------|----------------------------------|
A|--2-s/-------------------7--------|---------------------7-s\---------|
E|----------------------------------|----------------------------------|


                                   (H)
G|----------------------------------|----------------------------------|
D|----------------------------------|----------------------------------|
A|-4-----2-----0--------------------|-4-s\------2-----0----------------|
E|-------------------0--------------|-----------------------0----------|


                                   (I)
G|----------------------------------|----------------------------------|
D|----------------------------------|----------7-6-7-s/--9-------------|
A|--2-s/-------------------7--------|-------------------------7--------|
E|----------------------------------|----------------------------------|


                                   (J)
G|----------------------------------|----------------------------------|
D|----------------------------------|----------------------------------|
A|--2-s/-------------------7--------|----------------------7s\---------|
E|----------------------------------|----------------------------------|


                                   (K)
G|----------------------------------|----------------------------------|
D|----------------------------------|----------------------------------|
A|-4-----2-----0--------------------|-4-s\------2-----0----------------|
E|-------------------0--------------|-----------------------0----------|



                                   (L)
G|----------------------------------|----------------------------------|
D|----------------------------------|----------7-6-7-s/--9-------------|
A|--2-s/-------------------7--------|-------------------------7--------|
E|----------------------------------|----------------------------------|


                                   (M)
G|----------------------------------|----------------------------------|
D|----------7-6-7-S/--9-------------|-------------7-6-7----------------|
A|-------------------------7--------|---------------------7-S\---------|
E|----------------------------------|----------------------------------|


                                   (N)
G|----------------------------------|----------------------------------|
D|----------------------------------|----------------------------------|
A|-4-----2-----0--------------------|-4-s\------2-----0----------------|
E|-------------------0--------------|-----------------------0----------|


                                   (O)
G|----------------------------------|----------------------------------|
D|----------------------------------|----------------------------------|
A|--2-s/------------------7---------|--2-s/-------------------7--------|
E|----------------------------------|----------------------------------|


                                   (P)
G|----------------------------------|----------------------------------|
D|----------------------------------|----------------------------------|
A|--2-s/-------------------7--------|---------------------7-s\---------|
E|----------------------------------|----------------------------------|


                                   (Q)
G|----------------------------------|----------------------------------|
D|----------------------------------|----------------------------------|
A|-4-----2-----0--------------------|-4-s\------2-----0----------------|
E|-------------------0--------------|-----------------------0*---------|
            
Submit corrections

comments powered by Disqus
↑ Back to top | Jam Bass for Ghosts. Lyrics for acoustic guitar and electric guitar. Tablatures and chords are parodies/interpretations of the original songs. You may use it for private study, scholarship, research or language learning purposes only