» » »

Jam, Ghosts Tabs (ver.1)

Artists:  A B C D E F G H I J K L M N O P Q R S T U V W X Y Z # 

Ghosts Tabs (ver.1)

Jam Tabs
4/5 (4 votes)
Ghosts lessons Tabs too difficult? Try these video lessons and learn fast
                The Jam - The Gift 1982
Paul Weller, Bruce Foxton, Rick Buckler.

Intro / Main Guitar Riff:

e --------------------------------------------------------------|
B -----------10------10--9-----------10--10--9------------------|
G --------------------------------------------------------------|
D --------------------------------------------------------------|
A ---7---7---7---7---7---7---7---7---7---7---7------7---7---7---|
E --------------------------------------------------------------| x3

     C#m     B      A      E      C#m         B   A       E
e -----------------------------------------------------------------|
B -------5---4---------2---0--------------5---4----------2---0-----|
G -----------------------------------------------------------------|
D ------------------------------------6----------------------------|
A ---4-------2------0-------------4-----------2------0-------------|
E -------------------------0---------------------------------0-----|

The main riff repeats and stays the same until the final 4 bars of the song, then the 
guitar line changes to this:

     C#m     B      A      E          C#m     B   A       E
e -----------------------------------------------------------------|
B -------5---4---------2---0--------------5---4----------2---0-----|
G -----------------------------------------------------------1-----|
D -----------------------------------------------------------------|
A ---4-------2------0-----------------4---4---2------0-------------|
E -------------------------0------0--------------------------0-----|


Why are you frightened can't you see that it's you?
That ain't no ghost it's a reflection of you
Why do you turn away and keep it out of sight?

Oh don't live up to your given roles
There's more inside you that you won't show

But you keep it hidden just like everyone
You're scared to show you care it'll make you vulnerable
So you wear that ghost around you for disguise

But there's no need just 'cos it's all we've known
There's more inside you that you haven't shown

So keep on moving, moving, moving your feet
Keep on shuf-shuf-shuffling to this ghost dance beat
Just keep on walking down never ending streets

One day you'll walk right out of this life
And then you'll wonder why you didn't try

To spread some loving all around
Old fashioned causes like that still stand
Gotta rid this prejudice that ties you down

How do you feel at the end of the day?
Just like you've waked over your own grave

So why are you frightened can't you see that it's you?
At the moment there's nothing so there's nothing to lose
Lift up your lonely heart and walk right on through
Submit corrections

comments powered by Disqus
↑ Back to top | Jam Tabs for Ghosts. Lyrics for acoustic guitar and electric guitar. Tablatures and chords are parodies/interpretations of the original songs. You may use it for private study, scholarship, research or language learning purposes only