» » »

Jam, Ghosts Bass tabs (ver.1)

Artists:  A B C D E F G H I J K L M N O P Q R S T U V W X Y Z # 

Ghosts Bass tabs (ver.1)

Jam Tabs
Rating:
0/5 (0 votes)
Ghosts lessons Tabs too difficult? Try these video lessons and learn fast
                
Intro:

   G|-------------------------|
   D|-------------------------|
   A|-------------------------|
   E|-------------------------|

   G|-------------------------|
   D|-------------------------|
   A|-------------------------|
   E|-0-----------------------|

   G|-------------------------|
   D|-------------------------|
   A|-------------------------|
   E|-------------------------|

   G|-------------------------|-------------------------| Slide into
   D|-------------------------|-------------------------| fret 7 on
   A|-4---2-------------------|-4-----2---------------2/| the A string
   E|--------------5---0------|-------------5-----0-----| for the verse

Verse 1: 

   G|-------------------------|
   D|-------------------------| X2
   A|/7---------------------2/|
   E|-------------------------|
       Why...............you
       That..............you

   G|-------------------------|
   D|-------------------------|
   A|/7---------------------7-|
   E|-------------------------|
       Why.............sight

   G|-------------------------|-------------------------| Slide into
   D|-------------------------|-------------------------| fret 7 on
   A|-4---2-------------------|-4-----2---------------2/| the A string
   E|--------------5---0------|-------------5-----0-----| for the verse
       Oh..............roles     There's..........show

Verse 2: 

   G|-------------------------|
   D|-------------------------| X2
   A|/7---------------------2/|
   E|-------------------------|
       But..........everyone
       You're....vulneralble

   G|-------------------------|
   D|-------------------------|
   A|/7---------------------7-|
   E|-------------------------|
       So...........disguise

   G|-------------------------|-------------------------| Slide into
   D|-------------------------|-------------------------| fret 7 on
   A|-4---2-------------------|-4-----2---------------2/| the A string
   E|--------------5---0------|-------------5-----0-----| for the verse
       But.............known     There's..........shown

Verse 3: 

   G|-------------------------|-------------------------|
   D|-----------------------9-|-------------------------|
   A|/7-------------------7---|-7---------------------2/|
   E|-------------------------|-------------------------|
       So...............feet     Keep.............beat
       
   G|-------------------------|
   D|-------------------------|
   A|/7---------------------7-|
   E|-------------------------|
       Just..........streets

   G|-------------------------|-------------------------| Slide into
   D|-------------------------|-------------------------| fret 7 on
   A|-4---2-------------------|-4-----2---------------2/| the A string
   E|--------------5---0------|-------------5-----0-----| for the verse
       One.............life      And..............try

Verse 4: 

   G|-------------------------|
   D|-----------------------9-| X2
   A|/7-------------------7---|
   E|-------------------------|
       To...........around
       Old...........stand  
       
   G|-------------------------|
   D|-------------------------|
   A|-7---------------------7-|
   E|-------------------------|
       Gotta............down

   G|-------------------------|-------------------------| Slide into
   D|-------------------------|-------------------------| fret 7 on
   A|-4---2-------------------|-4-----2---------------2/| the A string
   E|--------------5---0------|-------------5-----0-----| for the verse
       How.............day       Just.............grave

Verse 5: 

   G|-------------------------|
   D|-------------------------| X2
   A|/7---------------------2/|
   E|-------------------------|
       So................you
       At...............lose

   G|-------------------------|
   D|-------------------------|
   A|/7---------------------7-|
   E|-------------------------|
       Life..........through

Outro:

   G|-------------------------|-------------------------|
   D|-------------------------|-------------------------|
   A|-4---2-------------------|-4-----2-----------------|
   E|--------------5---0------|-------------5-----0-----|

Lyrics:

   Why are you frightened - can't you see that it's you
   That ain't no ghost - it's a reflection of you
   Why do you turn away - an' keep it out of sight
   Oh - don't live up to your given roles
   There's more inside you that you won't show

   But you keep it hidden just like everyone
   You're scared to show you care - it'll make you vulnerable
   So you wear that ghost around you for disguise
   But there's no need just 'cos it's all we've known
   There's more inside you that you haven't shown

   So keep on moving, moving, moving your feet
   Keep on shuf-shuf-shuffling to this ghost dance beat
   Just keep on walking down never ending streets
   One day you'll walk right out of this life
   And then you'll wonder why you didn't try

   To spread some loving all around
   Old fashioned causes like that still stand
   Gotta rid this prejudice that ties you down
   How do you feel at the end of the day
   Just like you've waked over your own grave

   So why are you frightened - can't you see that it's you
   At the moment there's nothing - so there's nothing to lose
   Lift up your lonely heart and walk right on through
            
Submit corrections

comments powered by Disqus
↑ Back to top | Jam Bass for Ghosts. Lyrics for acoustic guitar and electric guitar. Tablatures and chords are parodies/interpretations of the original songs. You may use it for private study, scholarship, research or language learning purposes only