>
 >
The Wicker Man 1

The Wicker Man 1 Guitar Tabs

Iron Maiden - The Wicker Man 1 chords, tabs, tablatures, lyrics

Guitar lessons | Add/correct | Request | Top 50 tabs Artists:  A B C D E F G H I J K L M N O P Q R S T U V W X Y Z 0-9

The Wicker Man 1 Guitar Tabs – Iron Maiden

CD, Sheet music, Poster

Do you like The Wicker Man 1? Share with your friends now
TabsTabs v2Tabs v3
Track #: 01
Released: 2000
-----------------------------------------------------
Words and Music by: Adrian Smith, Steve Harris &
                    Bruce Dickson
-----------------------------------------------------
-----------------------------------------------------
Tuning: Standard
-----------------------------------------------------
 Legend
 ~~~~~~

    pm = Palm Mute
     x = Mute String
   < > = Natural Harmonic
   : : = Artificial Harmonic
     " = Tremolo Picking (under or above a note/chord)
  ( )~ = Trill between fret before and in bracket
     / = Slide Up
     \ = Slide Down
     s = Legato slide
     t = Finger-Tap (Hammer indicated note)
    pm = Palm Mute
     p = Pull-Off
     h = Hammer-On
     v = Vibrato
     b = Bend String (bend values indicated above staff)
      Q = Quarter Bend
      H = Half Bend
      F = Full Bend
     ^ = Play note while holding a bend
     r = Release String
     + = Wah Open (treble)
     - = Wah Closed (bass)
_______________________________________________________________________

Intro


   Gtr.1 (dist.)
 e|-----------------------------------------
 B|-----------------------------------------
 G|---9----9-----------9----9-----------9---
 D|-x-9----9-----------9----9-----------9---
 A|-x-7----7-----------7----7-----------7---
 E|-x-0----0-0-0-0-0-0-0----0-0-0-0-0-0-0---
             pm.......        pm.......


 e|-----------------------------------
 B|-----------------------------------
 G|-9----------------------12----12---
 D|-9-----------10----10---12----12---
 A|-7-----------10----10---10----10-x-
 E|-0-0-0-0-0-0--8-----8-x------------
      pm.......



   Gtr.1 (dist.)
 e|---------------------------------------
 B|---------------------------------------
 G|-9----9-----------9----9-----------9---
 D|-9----9-----------9----9-----------9---
 A|-7----7-----------7----7-----------7---
 E|-0----0-0-0-0-0-0-0----0-0-0-0-0-0-0---
 -|        pm.......        pm.......
 -|
 -|Gtrs.2+3 (dist.)
 e|---------------------------------------
 B|---------------------------------------
 G|-9----9-----------9----9-----------9---
 D|-9----9-----------9----9-----------9---
 A|-7----7-----------7----7-----------7---
 E|-0----0-----------0----0-----------0---



 e|-----------------------------------
 B|-----------------------------------
 G|-9----------------------12----12---
 D|-9-----------10----10---12----12---
 A|-7-----------10----10---10----10-x-
 E|-0-0-0-0-0-0--8-----8-x------------
 -|   pm.......
 -|
 e|-----------------------------------
 B|-----------------------------------
 G|-9----------------------12----12---
 D|-9-----------10----10---12----12---
 A|-7-----------10----10---10----10-x-
 E|-0------------8-----8-x------------



 e|---------------------------------------
 B|---------------------------------------
 G|-9----9-----------9----9-----------9---
 D|-9----9-----------9----9-----------9---
 A|-7----7-----------7----7-----------7---
 E|-0----0-0-0-0-0-0-0----0-0-0-0-0-0-0---
 -|        pm.......        pm.......
 -|
 e|---------------------------------------
 B|---------------------------------------
 G|-9----9-----------9----9-----------9---
 D|-9----9-----------9----9-----------9---
 A|-7----7-----------7----7-----------7---
 E|-0----0-----------0----0-----------0---



 e|-----------------------------------
 B|-----------------------------------
 G|-9----------------------12----12---
 D|-9-----------10----10---12----12---
 A|-7-----------10----10---10----10-x-
 E|-0-0-0-0-0-0--8-----8-x------------
 -|   pm.......
 -|
 e|-----------------------------------
 B|-----------------------------------
 G|-9----------------------12----12---
 D|-9-----------10----10---12----12---
 A|-7-----------10----10---10----10-x-
 E|-0------------8-----8-x------------



 e|---------------------------------------
 B|---------------------------------------
 G|-9----9-----------9----9-----------9---
 D|-9----9-----------9----9-----------9---
 A|-7----7-----------7----7-----------7---
 E|-0----0-0-0-0-0-0-0----0-0-0-0-0-0-0---
 -|        pm.......        pm.......
 -|
 e|---------------------------------------
 B|---------------------------------------
 G|-9----9-----------9----9-----------9---
 D|-9----9-----------9----9-----------9---
 A|-7----7-----------7----7-----------7---
 E|-0----0-----------0----0-----------0---



 e|-----------------------------------
 B|-----------------------------------
 G|-9----------------------12----12---
 D|-9-----------10----10---12----12---
 A|-7-----------10----10---10----10-x-
 E|-0-0-0-0-0-0--8-----8-x------------
 -|   pm.......
 -|
 e|-----------------------------------
 B|-----------------------------------
 G|-9----------------------12----12---
 D|-9-----------10----10---12----12---
 A|-7-----------10----10---10----10-x-
 E|-0------------8-----8-x------------





Verse 1


   Gtr.1 (dist.)
 e|---------------------------------------
 B|---------------------------------------
 G|-9----9-----------9----9-----------9---
 D|-9----9-----------9----9-----------9---
 A|-7----7-----------7----7-----------7---
 E|-0----0-0-0-0-0-0-0----0-0-0-0-0-0-0---
 -|        pm.......        pm.......
 -|
 -|Gtrs.2+3 (dist.)
 e|---------------------------------------
 B|---------------------------------------
 G|-9----9-----------9----9-----------9---
 D|-9----9-----------9----9-----------9---
 A|-7----7-----------7----7-----------7---
 E|-0----0-----------0----0-----------0---



 e|-----------------------------------
 B|-----------------------------------
 G|-9----------------------12----12---
 D|-9-----------10----10---12----12---
 A|-7-----------10----10---10----10-x-
 E|-0-0-0-0-0-0--8-----8-x------------
 -|   pm.......
 -|
 e|-----------------------------------
 B|-----------------------------------
 G|-9----------------------12----12---
 D|-9-----------10----10---12----12---
 A|-7-----------10----10---10----10-x-
 E|-0------------8-----8-x------------



 e|---------------------------------------
 B|---------------------------------------
 G|-9----9-----------9----9-----------9---
 D|-9----9-----------9----9-----------9---
 A|-7----7-----------7----7-----------7---
 E|-0----0-0-0-0-0-0-0----0-0-0-0-0-0-0---
 -|        pm.......        pm.......
 -|
 e|---------------------------------------
 B|---------------------------------------
 G|-9----9-----------9----9-----------9---
 D|-9----9-----------9----9-----------9---
 A|-7----7-----------7----7-----------7---
 E|-0----0-----------0----0-----------0---



 e|-----------------------------------
 B|-----------------------------------
 G|-9----------------------12----12---
 D|-9-----------10----10---12----12---
 A|-7-----------10----10---10----10-x-
 E|-0-0-0-0-0-0--8-----8-x------------
 -|   pm.......
 -|
 e|-----------------------------------
 B|-----------------------------------
 G|-9----------------------12----12---
 D|-9-----------10----10---12----12---
 A|-7-----------10----10---10----10-x-
 E|-0------------8-----8-x------------



 e|---------------------------------------
 B|---------------------------------------
 G|-9----9-----------9----9-----------9---
 D|-9----9-----------9----9-----------9---
 A|-7----7-----------7----7-----------7---
 E|-0----0-0-0-0-0-0-0----0-0-0-0-0-0-0---
 -|        pm.......        pm.......
 -|
 e|---------------------------------------
 B|---------------------------------------
 G|-9----9-----------9----9-----------9---
 D|-9----9-----------9----9-----------9---
 A|-7----7-----------7----7-----------7---
 E|-0----0-----------0----0-----------0---



 e|-----------------------------------
 B|-----------------------------------
 G|-9----------------------12----12---
 D|-9-----------10----10---12----12---
 A|-7-----------10----10---10----10-x-
 E|-0-0-0-0-0-0--8-----8-x------------
 -|   pm.......
 -|
 e|-----------------------------------
 B|-----------------------------------
 G|-9----------------------12----12---
 D|-9-----------10----10---12----12---
 A|-7-----------10----10---10----10-x-
 E|-0------------8-----8-x------------



 e|---------------------------------------
 B|---------------------------------------
 G|-9----9-----------9----9-----------9---
 D|-9----9-----------9----9-----------9---
 A|-7----7-----------7----7-----------7---
 E|-0----0-0-0-0-0-0-0----0-0-0-0-0-0-0---
 -|        pm.......        pm.......
 -|
 e|---------------------------------------
 B|---------------------------------------
 G|-9----9-----------9----9-----------9---
 D|-9----9-----------9----9-----------9---
 A|-7----7-----------7----7-----------7---
 E|-0----0-----------0----0-----------0---



 e|-----------------------------------
 B|-----------------------------------
 G|-9----------------------12----12---
 D|-9-----------10----10---12----12---
 A|-7-----------10----10---10----10-x-
 E|-0-0-0-0-0-0--8-----8-x------------
 -|   pm.......
 -|
 e|-----------------------------------
 B|-----------------------------------
 G|-9----------------------12----12---
 D|-9-----------10----10---12----12---
 A|-7-----------10----10---10----10-x-
 E|-0------------8-----8-x------------





Pre-Chorus


   Gtrs.1+2 (dist.)
 e|------------------------------------------
 B|------------------------------------------
 G|-7----------7s9---5--------/12-12--11--9--
 D|-7----------7s9---5--------/12-12--11--9--
 A|-5----------5s7---3--------/10-10---7--7--
 E|------------------------------------------



 e|--------------------------------------
 B|--------------------------------------
 G|-7----------7s9---5-------------5-5---
 D|-7----------7s9---5-------5-5---5-5---
 A|-5----------5s7---3-------5-5---3-3---
 E|--------------------------3-3---------



 e|------------------------------------------
 B|------------------------------------------
 G|-7----------9-9---5--------/12-12--11--9--
 D|-7----------9-9---5--------/12-12--11--9--
 A|-5----------7-7---3--------/10-10---7--7--
 E|------------------------------------------



 e|-----------------------------------------
 B|-----------------------------------------
 G|-7----------7s9---5-----------5---7-7----
 D|-7----------7s9---5-----------5---7-7--x-
 A|-5----------5s7---3-----------3---5-5--x-
 E|-----------------------------------------





Chorus


   Gtr.1 (dist.)
 e|------------------------------------------
 B|-12-10-12-10-12-------12-10-12-10-12------
 G|----------------12-------------------12---
 D|------------------------------------------
 A|------------------------------------------
 E|------------------------------------------
 -|
 -|Gtrs.2+3 (dist.)
 e|------------------------------------------
 B|------------------------------------------
 G|--9--9--9--9--9--9-----5--5--5--5--5--5---
 D|--9--9--9--9--9--9-----5--5--5--5--5--5---
 A|--7--7--7--7--7--7-----3--3--3--3--3--3---
 E|------------------------------------------



 e|------------------------------------------
 B|-12-10-12-10-12-------12-10-12-13-12------
 G|----------------12-------------------12---
 D|------------------------------------------
 A|------------------------------------------
 E|------------------------------------------
 -|
 e|------------------------------------------
 B|------------------------------------------
 G|------------------------------------------
 D|--5--5--5--5--5--5-----7--7--7--7--7--7---
 A|--5--5--5--5--5--5-----7--7--7--7--7--7---
 E|--3--3--3--3--3--3-----5--5--5--5--5--5---



 e|------------------------------------------
 B|-12-10-12-10-12-------12-10-12-10-12------
 G|----------------12-------------------12---
 D|------------------------------------------
 A|------------------------------------------
 E|------------------------------------------
 -|
 e|------------------------------------------
 B|------------------------------------------
 G|--9--9--9--9--9--9----12-12-12-12-12-12---
 D|--9--9--9--9--9--9----12-12-12-12-12-12---
 A|--7--7--7--7--7--7----10-10-10-10-10-10---
 E|------------------------------------------



 e|------------------------------------------
 B|-12-10-12-10-12-------12-10-12-13-12------
 G|----------------12-------------------12---
 D|------------------------------------------
 A|------------------------------------------
 E|------------------------------------------
 -|
 e|------------------------------------------
 B|------------------------------------------
 G|--5--5--5--5--5--5------------------------
 D|--5--5--5--5--5--5-----5--5--5-----7--7---
 A|--3--3--3--3--3--3-----5--5--5-----7--7---
 E|-----------------------3--3--3-----5--5---



 e|------------------------------------------
 B|-12-10-12-10-12-------12-10-12-10-12------
 G|----------------12-------------------12---
 D|------------------------------------------
 A|------------------------------------------
 E|------------------------------------------
 -|
 e|------------------------------------------
 B|------------------------------------------
 G|--9--9--9--9--9--9-----5--5--5--5--5--5---
 D|--9--9--9--9--9--9-----5--5--5--5--5--5---
 A|--7--7--7--7--7--7-----3--3--3--3--3--3---
 E|------------------------------------------



 e|------------------------------------------
 B|-12-10-12-10-12-------12-10-12-13-12------
 G|----------------12-------------------12---
 D|------------------------------------------
 A|------------------------------------------
 E|------------------------------------------
 -|
 e|------------------------------------------
 B|------------------------------------------
 G|------------------------------------------
 D|--5--5--5--5--5--5-----7--7--7--7--7--7---
 A|--5--5--5--5--5--5-----7--7--7--7--7--7---
 E|--3--3--3--3--3--3-----5--5--5--5--5--5---



 e|------------------------------------------
 B|-12-10-12-10-12-------12-10-12-10-12------
 G|----------------12-------------------12---
 D|------------------------------------------
 A|------------------------------------------
 E|------------------------------------------
 -|
 e|------------------------------------------
 B|------------------------------------------
 G|--9--9--9--9--9--9----12-12-12-12-12-12---
 D|--9--9--9--9--9--9----12-12-12-12-12-12---
 A|--7--7--7--7--7--7----10-10-10-10-10-10---
 E|------------------------------------------



 e|------------------------------------------
 B|-12-10-12-10-12-------12-10-12-13-12------
 G|----------------12-------------------12---
 D|------------------------------------------
 A|------------------------------------------
 E|------------------------------------------
 -|
 e|------------------------------------------
 B|------------------------------------------
 G|--5--5--5--5--5--5------------------------
 D|--5--5--5--5--5--5-----5--5--------7--7---
 A|--3--3--3--3--3--3-----5--5--------7--7---
 E|-----------------------3--3--------5--5---





Verse 2


   Gtr.1 (dist.)
 e|---------------------------------------
 B|---------------------------------------
 G|-9----9-----------9----9-----------9---
 D|-9----9-----------9----9-----------9---
 A|-7----7-----------7----7-----------7---
 E|-0----0-0-0-0-0-0-0----0-0-0-0-0-0-0---
 -|        pm.......        pm.......
 -|
 -|Gtrs.2+3 (dist.)
 e|---------------------------------------
 B|---------------------------------------
 G|-9----9-----------9----9-----------9---
 D|-9----9-----------9----9-----------9---
 A|-7----7-----------7----7-----------7---
 E|-0----0-----------0----0-----------0---



 e|-----------------------------------
 B|-----------------------------------
 G|-9----------------------12----12---
 D|-9-----------10----10---12----12---
 A|-7-----------10----10---10----10-x-
 E|-0-0-0-0-0-0--8-----8-x------------
 -|   pm.......
 -|
 e|-----------------------------------
 B|-----------------------------------
 G|-9----------------------12----12---
 D|-9-----------10----10---12----12---
 A|-7-----------10----10---10----10-x-
 E|-0------------8-----8-x------------



 e|---------------------------------------
 B|---------------------------------------
 G|-9----9-----------9----9-----------9---
 D|-9----9-----------9----9-----------9---
 A|-7----7-----------7----7-----------7---
 E|-0----0-0-0-0-0-0-0----0-0-0-0-0-0-0---
 -|        pm.......        pm.......
 -|
 e|---------------------------------------
 B|---------------------------------------
 G|-9----9-----------9----9-----------9---
 D|-9----9-----------9----9-----------9---
 A|-7----7-----------7----7-----------7---
 E|-0----0-----------0----0-----------0---



 e|-----------------------------------
 B|-----------------------------------
 G|-9----------------------12----12---
 D|-9-----------10----10---12----12---
 A|-7-----------10----10---10----10-x-
 E|-0-0-0-0-0-0--8-----8-x------------
 -|   pm.......
 -|
 e|-----------------------------------
 B|-----------------------------------
 G|-9----------------------12----12---
 D|-9-----------10----10---12----12---
 A|-7-----------10----10---10----10-x-
 E|-0------------8-----8-x------------



 e|---------------------------------------
 B|---------------------------------------
 G|-9----9-----------9----9-----------9---
 D|-9----9-----------9----9-----------9---
 A|-7----7-----------7----7-----------7---
 E|-0----0-0-0-0-0-0-0----0-0-0-0-0-0-0---
 -|        pm.......        pm.......
 -|
 e|---------------------------------------
 B|---------------------------------------
 G|-9----9-----------9----9-----------9---
 D|-9----9-----------9----9-----------9---
 A|-7----7-----------7----7-----------7---
 E|-0----0-----------0----0-----------0---



 e|-----------------------------------
 B|-----------------------------------
 G|-9----------------------12----12---
 D|-9-----------10----10---12----12---
 A|-7-----------10----10---10----10-x-
 E|-0-0-0-0-0-0--8-----8-x------------
 -|   pm.......
 -|
 e|-----------------------------------
 B|-----------------------------------
 G|-9----------------------12----12---
 D|-9-----------10----10---12----12---
 A|-7-----------10----10---10----10-x-
 E|-0------------8-----8-x------------



 e|---------------------------------------
 B|---------------------------------------
 G|-9----9-----------9----9-----------9---
 D|-9----9-----------9----9-----------9---
 A|-7----7-----------7----7-----------7---
 E|-0----0-0-0-0-0-0-0----0-0-0-0-0-0-0---
 -|        pm.......        pm.......
 -|
 e|---------------------------------------
 B|---------------------------------------
 G|-9----9-----------9----9-----------9---
 D|-9----9-----------9----9-----------9---
 A|-7----7-----------7----7-----------7---
 E|-0----0-----------0----0-----------0---



 e|-----------------------------------
 B|-----------------------------------
 G|-9----------------------12----12---
 D|-9-----------10----10---12----12---
 A|-7-----------10----10---10----10-x-
 E|-0-0-0-0-0-0--8-----8-x------------
 -|   pm.......
 -|
 e|-----------------------------------
 B|-----------------------------------
 G|-9----------------------12----12---
 D|-9-----------10----10---12----12---
 A|-7-----------10----10---10----10-x-
 E|-0------------8-----8-x------------





Pre-Chorus


   Gtrs.1+2 (dist.)
 e|------------------------------------------
 B|------------------------------------------
 G|-7----------7s9---5--------/12-12--11--9--
 D|-7----------7s9---5--------/12-12--11--9--
 A|-5----------5s7---3--------/10-10---7--7--
 E|------------------------------------------



 e|--------------------------------------
 B|--------------------------------------
 G|-7----------7s9---5-------------5-5---
 D|-7----------7s9---5-------5-5---5-5---
 A|-5----------5s7---3-------5-5---3-3---
 E|--------------------------3-3---------



 e|------------------------------------------
 B|------------------------------------------
 G|-7----------9-9---5--------/12-12--11--9--
 D|-7----------9-9---5--------/12-12--11--9--
 A|-5----------7-7---3--------/10-10---7--7--
 E|------------------------------------------



 e|-----------------------------------------
 B|-----------------------------------------
 G|-7----------7s9---5-----------5---7-7----
 D|-7----------7s9---5-----------5---7-7--x-
 A|-5----------5s7---3-----------3---5-5--x-
 E|-----------------------------------------





Chorus


   Gtr.1 (dist.)
 e|------------------------------------------
 B|-12-10-12-10-12-------12-10-12-10-12------
 G|----------------12-------------------12---
 D|------------------------------------------
 A|------------------------------------------
 E|------------------------------------------
 -|
 -|Gtrs.2+3 (dist.)
 e|------------------------------------------
 B|------------------------------------------
 G|--9--9--9--9--9--9-----5--5--5--5--5--5---
 D|--9--9--9--9--9--9-----5--5--5--5--5--5---
 A|--7--7--7--7--7--7-----3--3--3--3--3--3---
 E|------------------------------------------



 e|------------------------------------------
 B|-12-10-12-10-12-------12-10-12-13-12------
 G|----------------12-------------------12---
 D|------------------------------------------
 A|------------------------------------------
 E|------------------------------------------
 -|
 e|------------------------------------------
 B|------------------------------------------
 G|------------------------------------------
 D|--5--5--5--5--5--5-----7--7--7--7--7--7---
 A|--5--5--5--5--5--5-----7--7--7--7--7--7---
 E|--3--3--3--3--3--3-----5--5--5--5--5--5---



 e|------------------------------------------
 B|-12-10-12-10-12-------12-10-12-10-12------
 G|----------------12-------------------12---
 D|------------------------------------------
 A|------------------------------------------
 E|------------------------------------------
 -|
 e|------------------------------------------
 B|------------------------------------------
 G|--9--9--9--9--9--9----12-12-12-12-12-12---
 D|--9--9--9--9--9--9----12-12-12-12-12-12---
 A|--7--7--7--7--7--7----10-10-10-10-10-10---
 E|------------------------------------------



 e|------------------------------------------
 B|-12-10-12-10-12-------12-10-12-13-12------
 G|----------------12-------------------12---
 D|------------------------------------------
 A|------------------------------------------
 E|------------------------------------------
 -|
 e|------------------------------------------
 B|------------------------------------------
 G|--5--5--5--5--5--5------------------------
 D|--5--5--5--5--5--5-----5--5--5-----7--7---
 A|--3--3--3--3--3--3-----5--5--5-----7--7---
 E|-----------------------3--3--3-----5--5---



 e|------------------------------------------
 B|-12-10-12-10-12-------12-10-12-10-12------
 G|----------------12-------------------12---
 D|------------------------------------------
 A|------------------------------------------
 E|------------------------------------------
 -|
 e|------------------------------------------
 B|------------------------------------------
 G|--9--9--9--9--9--9-----5--5--5--5--5--5---
 D|--9--9--9--9--9--9-----5--5--5--5--5--5---
 A|--7--7--7--7--7--7-----3--3--3--3--3--3---
 E|------------------------------------------



 e|------------------------------------------
 B|-12-10-12-10-12-------12-10-12-13-12------
 G|----------------12-------------------12---
 D|------------------------------------------
 A|------------------------------------------
 E|------------------------------------------
 -|
 e|------------------------------------------
 B|------------------------------------------
 G|------------------------------------------
 D|--5--5--5--5--5--5-----7--7--7--7--7--7---
 A|--5--5--5--5--5--5-----7--7--7--7--7--7---
 E|--3--3--3--3--3--3-----5--5--5--5--5--5---



 e|------------------------------------------
 B|-12-10-12-10-12-------12-10-12-10-12------
 G|----------------12-------------------12---
 D|------------------------------------------
 A|------------------------------------------
 E|------------------------------------------
 -|
 e|------------------------------------------
 B|------------------------------------------
 G|--9--9--9--9--9--9----12-12-12-12-12-12---
 D|--9--9--9--9--9--9----12-12-12-12-12-12---
 A|--7--7--7--7--7--7----10-10-10-10-10-10---
 E|------------------------------------------



 e|------------------------------------------
 B|-12-10-12-10-12-------12-10-12-13-12------
 G|----------------12-------------------12---
 D|------------------------------------------
 A|------------------------------------------
 E|------------------------------------------
 -|
 e|------------------------------------------
 B|------------------------------------------
 G|--5--5--5--5--5--5------------------------
 D|--5--5--5--5--5--5--------5--------7--7---
 A|--3--3--3--3--3--3--------5--------7--7---
 E|--------------------------3--------5--5---





GUITAR SOLO


   Gtr.1 (dist.)
 e|--------------------------------------
 B|--------------------------------------
 G|--------------------------------------
 D|--------------------------------------
 A|-x-7------------9-10-7v---------------
 E|--------------------------------------
 -|
 -|Gtrs.2+3 (dist.)
 e|--------------------------------------
 B|--------------------------------------
 G|---9----9------------9----9-----------
 D|---9----9------------9----9-----------
 A|---7----7-x-x-x-x--x-7----7-x-x-x-x-x-
 E|--------------------------------------



 e|-----------------------------------------
 B|-----------------------------------------
 G|-----------------------------------------
 D|------7------7------7-9----7-9-10-9-7----
 A|--------9-10---9-10-----10------------10-
 E|-----------------------------------------
 -|      pm................................
 -|
 e|-----------------------------------------
 B|-----------------------------------------
 G|-5----5------------------------7---------
 D|-5----5-------------5----------7---------
 A|-3----3-x--x-x-x--x-5----------5----x--x-
 E|--------------------3------x-x-----------



 e|----------------------------------0-
 B|------------------------------------
 G|------------------------------------
 D|------------------------------------
 A|-7v-----------9-10-7----------------
 E|------------------------------------
 -|
 e|------------------------------------
 B|------------------------------------
 G|-9----9------------9----9-----------
 D|-9----9------------9----9-----------
 A|-7----7-x-x-x-x--x-7----7-x-x-x-x-x-
 E|------------------------------------



 e|-0-12p10-0-0-14p12-0-0-0-14-15-17-15-14----
 B|----------------------------------------17-
 G|-------------------------------------------
 D|-------------------------------------------
 A|-------------------------------------------
 E|-------------------------------------------
 -|
 e|-------------------------------------------
 B|-------------------------------------------
 G|-5-----5------------------------7----------
 D|-5-----5-------------5----------7----------
 A|-3-----3-x-x--x--x-x-5----------5-----x--x-
 E|---------------------3----x--x-------------



 e|------------------------------------
 B|------------------------------------
 G|------------------------------------
 D|------------------------------------
 A|-7------------9-10-7v---------------
 E|------------------------------------
 -|
 e|------------------------------------
 B|------------------------------------
 G|-9----9------------9----9-----------
 D|-9----9------------9----9-----------
 A|-7----7-x-x-x-x--x-7----7-x-x-x-x-x-
 E|------------------------------------



 e|-----------------------------------------
 B|-----------------------------------------
 G|-----------------------------------------
 D|------7------7------7-9----7-9-10-9-7----
 A|--------9-10---9-10-----10------------10-
 E|-----------------------------------------
 -|      pm................................
 -|
 e|-----------------------------------------
 B|-----------------------------------------
 G|-5----5------------------------7---------
 D|-5----5-------------5----------7---------
 A|-3----3-x--x-x-x--x-5----------5----x--x-
 E|--------------------3------x-x-----------



 e|----------------------------------0-
 B|------------------------------------
 G|------------------------------------
 D|------------------------------------
 A|-7v-----------9-10-7----------------
 E|------------------------------------
 -|
 e|------------------------------------
 B|------------------------------------
 G|-9----9------------9----9-----------
 D|-9----9------------9----9-----------
 A|-7----7-x-x-x-x--x-7----7-x-x-x-x-x-
 E|------------------------------------



 e|-0-12p10-0-0-14p12-0-0-0-14-15-17-15-14------
 B|----------------------------------------17v--
 G|---------------------------------------------
 D|---------------------------------------------
 A|---------------------------------------------
 E|---------------------------------------------
 -|
 e|---------------------------------------------
 B|---------------------------------------------
 G|-5-----5------------------------7------------
 D|-5-----5-------------5----------7------------
 A|-3-----3-x-x--x--x-x-5----------5------------
 E|---------------------3-----------------------



   Gtrs.2+3 - w/Fill 1 (dist.)[x2]
   Gtr.1 (dist.)
         F        H
 e|----------------------7h8p7-10-7------------------------------
 B|----10b---r(11)b-----------------10-h12--8--12--10-h12--8--10-
 G|--------------------------------------------------------------
 D|--------------------------------------------------------------
 A|--------------------------------------------------------------
 E|--------------------------------------------------------------


                          F                 F
 e|------------------------------7----------------------------------
 B|-10-p0---------------10b---------7--10------7--------------------
 G|--------9----8v-------------------------9b-----10--9--7-----9v---
 D|---------------------------------------------------------9-------
 A|-----------------------------------------------------------------
 E|-----------------------------------------------------------------



 e|----------------------------------------------------------------
 B|----------------------------------------------------------------
 G|-7v-------------------------------------------------------------
 D|------------7------------7-------------------------7h10-7-------
 A|-----9--10-----10--9--7-----10--9--7--6(7)~----------------9-p7-
 E|----------------------------------------------------------------



 e|----------------------------------------------------------------
 B|------------------------------7-------------------7-------------
 G|---------------------------------8-------------8-----8----------
 D|-----------7------------------------10--7--10-----------10--7---
 A|-----7--9-----9-p7------7--9------------------------------------
 E|-11-----------------11------------------------------------------



 e|--------------------------------------------------------------------
 B|--------------------------------------------------------------------
 G|-------------------------------t12p0-4-t12p0-4-t12p0-4-t12p0-4-12/--
 D|-10-p7------------7--10---------------------------------------------
 A|--------9------9----------------------------------------------------
 E|-----------11-------------------------------------------------------



 e|-------16-17-19s20-19p17----19----------------17-------------------
 B|-17-19-------------------20----20p19-17h19h20----20p19-19-20p19-17-
 G|-------------------------------------------------------------------
 D|-------------------------------------------------------------------
 A|-------------------------------------------------------------------
 E|-------------------------------------------------------------------



 e|----0----------17h19h20-19p17----17----------------------------
 B|------17h19h20----------------20----20p17-17s15----------------
 G|-20---------------------------------------------17-16v--(16)\--
 D|---------------------------------------------------------------
 A|---------------------------------------------------------------
 E|---------------------------------------------------------------



   Gtr.1 (dist.)
 e|---------------------------------
 B|---------------------------------
 G|---------------------------------
 D|---------------------------------
 A|-7---------9-10-7----------------
 E|---------------------------------
 -|
 -|Gtrs.2+3 (dist.)
 e|---------------------------------
 B|---------------------------------
 G|-9--------------9----9-----------
 D|-9--------------9----9-----------
 A|-7-x-x-x-x-x--x-7----7-x-x-x-x-x-
 E|---------------------------------



 e|-----------------------------------------
 B|-----------------------------------------
 G|-----------------------------------------
 D|------7------7------7-9----7-9-10-9-7----
 A|--------9-10---9-10-----10------------10-
 E|-----------------------------------------
 -|
 e|-----------------------------------------
 B|-----------------------------------------
 G|-5----5------------------------7---------
 D|-5----5-------------5----------7---------
 A|-3----3-x--x-x-x--x-5----------5----x--x-
 E|--------------------3------x-x-----------



 e|------------------------------------
 B|------------------------------------
 G|------------------------------------
 D|------------------------------------
 A|-7------------9-10-7----------------
 E|------------------------------------
 -|
 e|------------------------------------
 B|------------------------------------
 G|-9----9------------9----9-----------
 D|-9----9------------9----9-----------
 A|-7----7-x-x-x-x--x-7----7-x-x-x-x-x-
 E|------------------------------------



 e|-0-12p10-0-0-14p12-0-0-0-14-15-17-15-14----
 B|----------------------------------------17-
 G|-------------------------------------------
 D|-------------------------------------------
 A|-------------------------------------------
 E|-------------------------------------------
 -|
 e|-------------------------------------------
 B|-------------------------------------------
 G|-5-----5------------------------7----------
 D|-5-----5-------------5----------7----------
 A|-3-----3-x-x--x--x-x-5----------5-----x--x-
 E|---------------------3----x--x-------------



 e|------------------------------------
 B|------------------------------------
 G|------------------------------------
 D|------------------------------------
 A|-7------------9-10-7----------------
 E|------------------------------------
 -|
 e|------------------------------------
 B|------------------------------------
 G|-9----9------------9----9-----------
 D|-9----9------------9----9-----------
 A|-7----7-x-x-x-x--x-7----7-x-x-x-x-x-
 E|------------------------------------



 e|-----------------------------------------
 B|-----------------------------------------
 G|-----------------------------------------
 D|------7------7------7-9----7-9-10-9-7----
 A|--------9-10---9-10-----10------------10-
 E|-----------------------------------------
 -|
 e|-----------------------------------------
 B|-----------------------------------------
 G|-5----5------------------------7---------
 D|-5----5-------------5----------7---------
 A|-3----3-x--x-x-x--x-5----------5----x--x-
 E|--------------------3------x-x-----------



 e|------------------------------------
 B|------------------------------------
 G|------------------------------------
 D|------------------------------------
 A|-7------------9-10-7----------------
 E|------------------------------------
 -|
 e|------------------------------------
 B|------------------------------------
 G|-9----9------------9----9-----------
 D|-9----9------------9----9-----------
 A|-7----7-x-x-x-x--x-7----7-x-x-x-x-x-
 E|------------------------------------



 e|-0-12p10-0-0-14p12-0-0-0-14-15-17-15-14\--v--
 B|---------------------------------------------
 G|---------------------------------------------
 D|---------------------------------------------
 A|---------------------------------------------
 E|---------------------------------------------
 -|
 e|---------------------------------------------
 B|---------------------------------------------
 G|-5-----5------------------------7------------
 D|-5-----5-------------5----------7------------
 A|-3-----3-x-x--x--x-x-5----------5------------
 E|---------------------3-----------------------





Chorus


   Gtr.1 (dist.)
 e|------------------------------------------
 B|-12-10-12-10-12-------12-10-12-10-12------
 G|----------------12-------------------12---
 D|------------------------------------------
 A|------------------------------------------
 E|------------------------------------------
 -|
 -|Gtrs.2+3 (dist.)
 e|------------------------------------------
 B|------------------------------------------
 G|--9--9--9--9--9--9-----5--5--5--5--5--5---
 D|--9--9--9--9--9--9-----5--5--5--5--5--5---
 A|--7--7--7--7--7--7-----3--3--3--3--3--3---
 E|------------------------------------------



 e|------------------------------------------
 B|-12-10-12-10-12-------12-10-12-13-12------
 G|----------------12-------------------12---
 D|------------------------------------------
 A|------------------------------------------
 E|------------------------------------------
 -|
 e|------------------------------------------
 B|------------------------------------------
 G|------------------------------------------
 D|--5--5--5--5--5--5-----7--7--7--7--7--7---
 A|--5--5--5--5--5--5-----7--7--7--7--7--7---
 E|--3--3--3--3--3--3-----5--5--5--5--5--5---



 e|------------------------------------------
 B|-12-10-12-10-12-------12-10-12-10-12------
 G|----------------12-------------------12---
 D|------------------------------------------
 A|------------------------------------------
 E|------------------------------------------
 -|
 e|------------------------------------------
 B|------------------------------------------
 G|--9--9--9--9--9--9----12-12-12-12-12-12---
 D|--9--9--9--9--9--9----12-12-12-12-12-12---
 A|--7--7--7--7--7--7----10-10-10-10-10-10---
 E|------------------------------------------



 e|------------------------------------------
 B|-12-10-12-10-12-------12-10-12-13-12------
 G|----------------12-------------------12---
 D|------------------------------------------
 A|------------------------------------------
 E|------------------------------------------
 -|
 e|------------------------------------------
 B|------------------------------------------
 G|--5--5--5--5--5--5------------------------
 D|--5--5--5--5--5--5-----5--5--5-----7--7---
 A|--3--3--3--3--3--3-----5--5--5-----7--7---
 E|-----------------------3--3--3-----5--5---



 e|------------------------------------------
 B|-12-10-12-10-12-------12-10-12-10-12------
 G|----------------12-------------------12---
 D|------------------------------------------
 A|------------------------------------------
 E|------------------------------------------
 -|
 e|------------------------------------------
 B|------------------------------------------
 G|--9--9--9--9--9--9-----5--5--5--5--5--5---
 D|--9--9--9--9--9--9-----5--5--5--5--5--5---
 A|--7--7--7--7--7--7-----3--3--3--3--3--3---
 E|------------------------------------------



 e|------------------------------------------
 B|-12-10-12-10-12-------12-10-12-13-12------
 G|----------------12-------------------12---
 D|------------------------------------------
 A|------------------------------------------
 E|------------------------------------------
 -|
 e|------------------------------------------
 B|------------------------------------------
 G|------------------------------------------
 D|--5--5--5--5--5--5-----7--7--7--7--7--7---
 A|--5--5--5--5--5--5-----7--7--7--7--7--7---
 E|--3--3--3--3--3--3-----5--5--5--5--5--5---



 e|------------------------------------------
 B|-12-10-12-10-12-------12-10-12-10-12------
 G|----------------12-------------------12---
 D|------------------------------------------
 A|------------------------------------------
 E|------------------------------------------
 -|
 e|------------------------------------------
 B|------------------------------------------
 G|--9--9--9--9--9--9----12-12-12-12-12-12---
 D|--9--9--9--9--9--9----12-12-12-12-12-12---
 A|--7--7--7--7--7--7----10-10-10-10-10-10---
 E|------------------------------------------



 e|------------------------------------------
 B|-12-10-12-10-12-------12-10-12-13-12------
 G|----------------12-------------------12---
 D|------------------------------------------
 A|------------------------------------------
 E|------------------------------------------
 -|
 e|------------------------------------------
 B|------------------------------------------
 G|--5--5--5--5--5--5------------------------
 D|--5--5--5--5--5--5-----5--5--------7--7---
 A|--3--3--3--3--3--3-----5--5--------7--7---
 E|-----------------------3--3--------5--5---



 e|------------------------------------------
 B|-12-10-12-10-12-------12-10-12-10-12------
 G|----------------12-------------------12---
 D|------------------------------------------
 A|------------------------------------------
 E|------------------------------------------
 -|
 e|------------------------------------------
 B|------------------------------------------
 G|--9--9--9--9--9--9-----5--5--5--5--5--5---
 D|--9--9--9--9--9--9-----5--5--5--5--5--5---
 A|--7--7--7--7--7--7-----3--3--3--3--3--3---
 E|------------------------------------------



 e|------------------------------------------
 B|-12-10-12-10-12-------12-10-12-13-12------
 G|----------------12-------------------12---
 D|------------------------------------------
 A|------------------------------------------
 E|------------------------------------------
 -|
 e|------------------------------------------
 B|------------------------------------------
 G|------------------------------------------
 D|--5--5--5--5--5--5-----7--7--7--7--7--7---
 A|--5--5--5--5--5--5-----7--7--7--7--7--7---
 E|--3--3--3--3--3--3-----5--5--5--5--5--5---



 e|------------------------------------------
 B|-12-10-12-10-12-------12-10-12-10-12------
 G|----------------12-------------------12---
 D|------------------------------------------
 A|------------------------------------------
 E|------------------------------------------
 -|
 e|------------------------------------------
 B|------------------------------------------
 G|--9--9--9--9--9--9----12-12-12-12-12-12---
 D|--9--9--9--9--9--9----12-12-12-12-12-12---
 A|--7--7--7--7--7--7----10-10-10-10-10-10---
 E|------------------------------------------



 e|------------------------------------------
 B|-12-10-12-10-12-------12-10-12-13-12------
 G|----------------12-------------------12---
 D|------------------------------------------
 A|------------------------------------------
 E|------------------------------------------
 -|
 e|------------------------------------------
 B|------------------------------------------
 G|--5--5--5--5--5--5------------------------
 D|--5--5--5--5--5--5-----5--5--5-----7--7---
 A|--3--3--3--3--3--3-----5--5--5-----7--7---
 E|-----------------------3--3--3-----5--5---



 e|------------------------------------------
 B|-12-10-12-10-12-------12-10-12-10-12------
 G|----------------12-------------------12---
 D|------------------------------------------
 A|------------------------------------------
 E|------------------------------------------
 -|
 e|------------------------------------------
 B|------------------------------------------
 G|--9--9--9--9--9--9-----5--5--5--5--5--5---
 D|--9--9--9--9--9--9-----5--5--5--5--5--5---
 A|--7--7--7--7--7--7-----3--3--3--3--3--3---
 E|------------------------------------------



 e|------------------------------------------
 B|-12-10-12-10-12-------12-10-12-13-12------
 G|----------------12-------------------12---
 D|------------------------------------------
 A|------------------------------------------
 E|------------------------------------------
 -|
 e|------------------------------------------
 B|------------------------------------------
 G|------------------------------------------
 D|--5--5--5--5--5--5-----7--7--7--7--7--7---
 A|--5--5--5--5--5--5-----7--7--7--7--7--7---
 E|--3--3--3--3--3--3-----5--5--5--5--5--5---



 e|------------------------------------------
 B|-12-10-12-10-12-------12-10-12-10-12------
 G|----------------12-------------------12---
 D|------------------------------------------
 A|------------------------------------------
 E|------------------------------------------
 -|
 e|------------------------------------------
 B|------------------------------------------
 G|--9--9--9--9--9--9----12-12-12-12-12-12---
 D|--9--9--9--9--9--9----12-12-12-12-12-12---
 A|--7--7--7--7--7--7----10-10-10-10-10-10---
 E|------------------------------------------



 e|------------------------------------------
 B|-12-10-12-10-12-------12-10-12-13-12------
 G|----------------12-------------------12---
 D|------------------------------------------
 A|------------------------------------------
 E|------------------------------------------
 -|
 e|------------------------------------------
 B|------------------------------------------
 G|--5--5--5--5--5--5------------------------
 D|--5--5--5--5--5--5--------5--------7--7---
 A|--3--3--3--3--3--3--------5--------7--7---
 E|--------------------------3--------5--5---





Outro


   Gtr.2 (dist.)
 e|------------------------|------------------------
 B|------------------------|------------------------
 G|-9--9--9--9--9--9--9--9-|-5--5--5--5--5--5--5--5-
 D|-9--9--9--9--9--9--9--9-|-5--5--5--5--5--5--5--5-
 A|-7--7--7--7--7--7--7--7-|-3--3--3--3--3--3--3--3-
 E|------------------------|------------------------


 e|------------------------|------------------------
 B|------------------------|------------------------
 G|------------------------|-7--7--7--7--7--7--7--7-
 D|-5--5--5--5--5--5--5--5-|-7--7--7--7--7--7--7--7-
 A|-5--5--5--5--5--5--5--5-|-5--5--5--5--5--5--5--5-
 E|-3--3--3--3--3--3--3--3-|------------------------


 e|------------------------|------------------------
 B|------------------------|------------------------
 G|-9--9--9--9--9--9--9--9-|-5--5--5--5--5--5--5--5-
 D|-9--9--9--9--9--9--9--9-|-5--5--5--5--5--5--5--5-
 A|-7--7--7--7--7--7--7--7-|-3--3--3--3--3--3--3--3-
 E|------------------------|------------------------


 e|------------------------|------------------------
 B|------------------------|------------------------
 G|------------------------|-7--7--7--7--7--7--7--7-
 D|-5--5--5--5--5--5--5--5-|-7--7--7--7--7--7--7--7-
 A|-5--5--5--5--5--5--5--5-|-5--5--5--5--5--5--5--5-
 E|-3--3--3--3--3--3--3--3-|------------------------



   Gtr.1 (dist.)
 e|------------------------|------------------------
 B|------------------------|------------------------
 G|-------4--2-----4--4(5)~|-------4--2-----4--5----
 D|------------------------|------------------------
 A|------------------------|------------------------
 E|------------------------|------------------------
 -|
 -|Gtr.3 (dist.)
 e|------------------------|------------------------
 B|------------------------|------------------------
 G|------------------------|------------------------
 D|-------5--4-----5--7----|-------5--4-----5--7----
 A|------------------------|------------------------
 E|------------------------|------------------------
 -|
 -|Gtr.2 (dist.)
 e|------------------------|------------------------
 B|------------------------|------------------------
 G|-9--9--9--9--9--9--9--9-|-5--5--5--5--5--5--5--5-
 D|-9--9--9--9--9--9--9--9-|-5--5--5--5--5--5--5--5-
 A|-7--7--7--7--7--7--7--7-|-3--3--3--3--3--3--3--3-
 E|------------------------|------------------------



 e|------------------------|------------------------
 B|------------------------|------------------------
 G|-------4--2-----4--5----|-------4--2-----0-------
 D|------------------------|-------------------4----
 A|------------------------|------------------------
 E|------------------------|------------------------
 -|
 e|------------------------|------------------------
 B|------------------------|------------------------
 G|------------------------|------------------------
 D|-------5--4-----5--7----|-------5--4-----2-------
 A|------------------------|-------------------5----
 E|------------------------|------------------------
 -|
 e|------------------------|------------------------
 B|------------------------|------------------------
 G|------------------------|-7--7--7--7--7--7--7--7-
 D|-5--5--5--5--5--5--5--5-|-7--7--7--7--7--7--7--7-
 A|-5--5--5--5--5--5--5--5-|-5--5--5--5--5--5--5--5-
 E|-3--3--3--3--3--3--3--3-|------------------------



 e|------------------------|------------------------
 B|------------------------|------------------------
 G|-------4--2-----4--4(5)~|-------4--2-----4--5----
 D|------------------------|------------------------
 A|------------------------|------------------------
 E|------------------------|------------------------
 -|
 e|------------------------|------------------------
 B|------------------------|------------------------
 G|------------------------|------------------------
 D|-------5--4-----5--7----|-------5--4-----5--7----
 A|------------------------|------------------------
 E|------------------------|------------------------
 -|
 e|------------------------|------------------------
 B|------------------------|------------------------
 G|-9--9--9--9--9--9--9--9-|-5--5--5--5--5--5--5--5-
 D|-9--9--9--9--9--9--9--9-|-5--5--5--5--5--5--5--5-
 A|-7--7--7--7--7--7--7--7-|-3--3--3--3--3--3--3--3-
 E|------------------------|------------------------



 e|------------------------|------------------------
 B|------------------------|------------------------
 G|-------4--2-----4--5----|-2----------------------
 D|------------------------|------------------------
 A|------------------------|------------------------
 E|------------------------|------------------------
 -|
 e|------------------------|------------------------
 B|------------------------|------------------------
 G|------------------------|------------------------
 D|-------5--4-----5--7----|-0----------------------
 A|------------------------|------------------------
 E|------------------------|------------------------
 -|
 e|------------------------|------------------------
 B|------------------------|------------------------
 G|------------------------|-7----------------------
 D|-5--5--5--5--5--5--5--5-|-7----------------------
 A|-5--5--5--5--5--5--5--5-|-5----------------------
 E|-3--3--3--3--3--3--3--3-|------------------------

_______________________________________________________________________
_______________________________________________________________________

 Fill 1
 ~~~~~~

 e|----------------------------------------------------------
 B|----------------------------------------------------------
 G|----------------------------------------------------------
 D|-9-9-9-9-9-9----7-7-7-7-7-7----5-5-5-5-5-5----7-7-7-7-7-7-
 A|-9-9-9-9-9-9----7-7-7-7-7-7----5-5-5-5-5-5----7-7-7-7-7-7-
 E|-7-7-7-7-7-7----5-5-5-5-5-5----3-3-3-3-3-3----5-5-5-5-5-5-

 e|----------------------------------------------------------
 B|----------------------------------------------------------
 G|----------------------------------------------5-5-5-5-5-5-
 D|-9-9-9-9-9-9----7-7-7-7-7-7----5-5-5-5-5-5----5-5-5-5-5-5-
 A|-9-9-9-9-9-9----7-7-7-7-7-7----5-5-5-5-5-5----3-3-3-3-3-3-
 E|-7-7-7-7-7-7----5-5-5-5-5-5----3-3-3-3-3-3----------------

_______________________________________________________________________

 Lyrics
 ~~~~~~

 Hand of fate is moving and the finger points to you
 He knocks you to your feet and so what are you gonna do
 Your tongue has frozen now you've got something to say
 The piper at the gates of dawn is calling you his way.

 You watch the world exploding every single night
 Dancing in the sun a new born in the light
 Say goodbye to gravity and say goodbye to death
 Hello to eternity and live for every breath.

 Your time will come
 Your time will come

 The ferryman wants his money you ain't going to give it back
 He can push his own boat as you set up off the track
 Nothing you can contemplate will ever be the same
 Every second is a new spark, sets the universe aflame

 You watch the world exploding every night
 Dancing in the sun a new born in the light
 Brothers and their fathers joining hands and make a chain
 The shadow of the Wicker man is rising up again.

 Your time will come
 Your time will come
_______________________________________________________________________





Comments


Popular Iron Maiden tabs & chords
Paschendale 2 Bass Tabs
Aces High 2 Tabs
Dance Of Death 3 Tabs
Heaven Can Wait 1 Tabs
Moonchild 1 Tabs
Mother Russia Tabs
Powerslave Tabs
Prowler Tabs
Revelations 1 Tabs
Wrathchild Tabs


Song lyrics



↑ Back to top | Tablatures and chords are parodies/interpretations of the original songs. You may use it for private study, scholarship, research or language learning purposes only
© 2014 AZChords.com Contact us | Privacy policy | DMCA | Add/correct tabs | Request tabs | Top 50 tabs