» » »

Iron Maiden, The Wickerman Bass tabs (ver.1)

Artists:  A B C D E F G H I J K L M N O P Q R S T U V W X Y Z # 

The Wickerman Bass tabs (ver.1)

Iron Maiden Tabs
 Rating:
4/5 (4 votes)
The Wickerman lessons Tabs too difficult? Try these video lessons and learn fast
                I made this tab as best as i could.  
If you do see a mistake or have any questions or there are any other 
Thanks.


Band-   Iron Maiden
Album-  Brave New World
Song-   The Wickerman


 = slide to
~ = let ring
| = pause
h = hammer on

Intro
G|-----|-----|-----|------------
D|-----|-----|-----|------------
A|-7-7-|-7-7-|-7-7-|-3-3--------
E|-----|-----|-----|-----3-3----

Verse
G|-------------------------------------
D|-------------------------------------
A|-7-7-7-7-7-7-7-7-7-7-7-7-3-3--------- x6
E|-----------------------------3-3-----

Pre-chorus
G|----------------------------------------
D|----------------------------------------
A|-5-5-5-5-5-5-5-5-3-3-3-3-10-10-10-9-7---
E|----------------------------------------

Pre-chorus (continued)
G|------------------------------------
D|------------------------------------
A|-5-5-5-5-5-5-5-5-3-3-3-3-----3-3---- x2
E|-------------------------3-3--------

Chorus
G|------------------------------------------------------------------
D|------------------------------------------------------------------
A|-7-7-7-7-7-7-7-7-3-3-3-3-3-3-3-3----------------------------------
E|---------------------------------3-3-3-3-3-3-3-3-5-5-5-5-5-5-5-5--

Chorus (continued)
G|---------------------------------------------------------------------
D|---------------------------------------------------------------------
A|-7-7-7-7-7-7-7-7-10-10-10-10-10-10-10-3-3-3-3-3-3-3-3---------------- x2
E|------------------------------------------------------3-3-5-5--------

Verse x4

Pre-chorus x2

Chorus x2

Bridge part1 (solo) 
G|--------------------------------------------------
D|--------------------------------------------------
A|-7-7-7-7-7-7-7-7-7-7-7-3-3-3-3-3-3-3-------5-5-5-- x4
E|-------------------------------------3-3-3--------

Bridge part2
G|---------------------------------------
D|---------------------------------------
A|-2-2-2-2-0-0-0-0---------0-0-0-0-------
E|-----------------3-3-3-3---------------


Bridge part1 x4

Chorus x4

Outro part1
G|---------------------------------------------------
D|---------------------------------------------------
A|-7-7-7-7-7-7-3-3-3-3-3-3-------------5-5-5-5-5-5--- x3
E|-------------------------3-3-3-3-3-3---------------

Outro part2
G|-----------------------------------------
D|-----------------------------------------
A|-7-7-7-7-7-7-3-3-3-3-3-3-------------5~--
E|-------------------------3-3-3-3-3-3-----

Please rate this tab and put your comments. Thankyou.
            
Submit corrections

comments powered by Disqus
↑ Back to top | Iron Maiden Bass for The Wickerman. Lyrics for acoustic guitar and electric guitar. Tablatures and chords are parodies/interpretations of the original songs. You may use it for private study, scholarship, research or language learning purposes only