>
 >
The Wicker Man 2

The Wicker Man 2 Guitar Tabs

Iron Maiden - The Wicker Man 2 chords, tabs, tablatures, lyrics

Guitar lessons | Add/correct | Request | Top 50 tabs Artists:  A B C D E F G H I J K L M N O P Q R S T U V W X Y Z 0-9

The Wicker Man 2 Guitar Tabs – Iron Maiden

CD, Sheet music, Poster

Do you like The Wicker Man 2? Share with your friends now
TabsTabs v2Tabs v3
E---------------------------------------------------|
B---------------------------------------------------|
G-----9-9----------9-9---------9-----------5-5--12--|    4x.
D-----9-9----------9-9---------9-----------5-5--12--|
A-----7-7----------7-7---------7-----------3-3--10--|
E--0------0-0-0-0------0-0-0-0----0-0-0-0-----------|
            P.M.         P.M.       P.M.


Verse:

"Hand of fate is moving..."  repeat Intro


Pre-Chorus:

"You watch the world explodin every single night...."
E---------------------------------------------------|
B---------------------------------------------------|
G--7---7-7---5--12-12-12---11--9---7--7-7--5-----5--|    2x.
D--7---7-7---5--12-12-12---11--9---7--7-7--5--5--5--|
A--5---5-5---3--10-10-10---9---7---5--5-5--3--5--3--|
E---------------------------------------------3-----|


Chorus:


"Your time will come........................Your time will come...ooooome"
E-------------------------------------------------------------------------
B-------------------------------------------------------------------------
G--9-9-9-9-9---5-5-5-5-5------------------------9-9-9-9-9--12-12-12-12-12-
D--9-9-9-9-9---5-5-5-5-5--5-5-5-5-5--7-7-7-7-7--9-9-9-9-9--12-12-12-12-12-
A--7-7-7-7-7---3-3-3-3-3--5-5-5-5-5--7-7-7-7-7--7-7-7-7-7--10-10-10-10-10-
E-------------------------3-3-3-3-3--5-5-5-5-5----------------------------

E---------------------------|
B---------------------------|
G--5-5-5-5-5----------------|
D--5-5-5-5-5--5-5-5--7-7-7--|       2x.
A--3-3-3-3-3--5-5-5--7-7-7--|
E-------------3-3-3--5-5-5--|

2nd Guitar(Chorus):

E---------------------------------------
B---------------------------------------
G--16-14-16-14-16-12--16-14-16-14-16-12-
D---------------------------------------
A---------------------------------------
E---------------------------------------

E---------------------------------------|
B---------------------------------------|
G-16-14-16-14-16-12--16-14-16-17-16-12--|
D---------------------------------------|
A---------------------------------------|
E---------------------------------------|


Pre-Solo:

        E               C                 G                      E
E-----------------------------------------------------------------------------
B-----------------------------------------------------------------------------
G-----------------------------------------------------------------------------
D---------------------------7----7-9----7-9-9-10-9-7--------------------------
A--7vv-7-9-10-7vv----7-9-10---10-----10--------------7vvv-----7-7vv--7-9-10-7v
E-----------------------------------------------------------------------------

         C                                G
E-------------------14-------14-15----17-19-17-15-14-------|
B---17-17-15-17-17-----17-17-------17----------------17vvv-|
G----------------------------------------------------------|   2x.
D----------------------------------------------------------|
A----------------------------------------------------------|
E----------------------------------------------------------|


Solo:

         
   B	   A         G              A                    B          
E------------------10----7---7----7---7----------------------------------
B--12v--12v--12v------10---8---10---8---10-------------10bF-10-10-8-10-8-
G-------------------------------------------9-(9)--8v--------------------
D------------------------------------------------------------------------
A---------------------------------------------P.M.-----------------------
E------------------------------------------------------------------------

       A            G                A       B                 A
E----------------------------------------------------------------------------
B----------------------------------------------------------------------------
G-9-8-9-8-9-8vv------------------------------------------------9-5-----------
D---------------------7---------9-7-----------9-5-----9-5----------9-6-------
A----------------7-10---10-7-10-----10-7-6--------9-6-----9-6----------------
E----------------------------------------------------------------------------

             G               A                         B
E--------------------------------------------------------17-19-20-19-17---17-
E--------------------------------------------------19-20----------------20---
G--9-5----------------------12-9-------12-9----------------------------------
D------9-6--7-4-----7-4----------12-10------12-10----------------------------
A---------------7-5-----7-5--------------------------------------------------
E----------------------------------------------------------------------------
 
      A                                  G                      A
E-------------17--------------------------17-19-20-19-17----17-------------
B-19-17-19-20----20-19-17-19-17-16--19-20----------------20----19-17-16-16-
G--------------------------------------------------------------------------
D--------------------------------------------------------------------------
A--------------------------------------------------------------------------
E--------------------------------------------------------------------------

E-------------|
E-------------|
E--16-16vvvv--|
E-------------|
E-------------|
E-------------|


repeat Pre-solo

repeat Chorus 4x.


Final:


E--------------------------------------------------------------|
E--------------------------------------------------------------|
E---9-9---------9--5-5---------5-----------------7-7---------7-|  4x.
E---9-9---------9--5-5---------5--5-5---------5--7-7---------7-|
E---7-7-7-7-7-7-7--3-3-3-3-3-3-3--5-5---------5--5-5-5-5-5-5-5-|
E---------------------------------3-3-3-3-3-3-3----------------|

2nd Guitar(in for 3x)
E--------------------------------------------|
B--------------------------------------------|
G--------------------------------------------|
D--5-4-5-7vv--5-4-5-7vv--5-4-5-7vv---5-4-2-0-|
A--------------------------------------------|
E--------------------------------------------|

3trd Guitar(in for 3x)
E-------------------------------------------------------------|
A-------------------------------------------------------------|
G--12-11-12-14vv--12-11-12-14vv--12-11-12-14vv--12-11-9-7vvvv-|
D-------------------------------------------------------------|
A-------------------------------------------------------------|
E-------------------------------------------------------------|





Comments


Popular Iron Maiden tabs & chords
Children Of The Damned 2 Bass Tabs
Communication Breakdown Bass Tabs
Dream Of Mirrors 3 Bass Tabs
Hallowed Be Thy Name 2 Bass Tabs
Children Of The Damned 2 Tabs
El Dorado 2 Tabs
Journeyman Tabs
Transylvania Tabs
When Two Worlds Collide 1 Tabs
Wildest Dreams Tabs


Song lyrics



↑ Back to top | Tablatures and chords are parodies/interpretations of the original songs. You may use it for private study, scholarship, research or language learning purposes only
© 2014 AZChords.com Contact us | Privacy policy | DMCA | Add/correct tabs | Request tabs | Top 50 tabs