» » »

MontséGur Tabs (ver.1)

Artists:  A B C D E F G H I J K L M N O P Q R S T U V W X Y Z # 

MontséGur Tabs (ver.1)

Iron Maiden
Rating:
0/5 (0 votes)

Hard to play? Try these video lessons and learn fast.
                Montségur – Iron Maiden 
Track 4 on Dance of Death 

This is probably the heaviest song on Dance of Death and its awesome. I think that all of this is pretty accurate. Apologies for no solo but i'm nowhere near good enough to figure it out.

Intro:
e------------------------------------- 
B------------------------------------- 
G------------------------------------- 
D------------------------------------- 
A--------------------0h2-------------- 
E-0-0-0-2-0-0-3-0-0------------------- 

e------------------------------------- 
B------------------------------------- 
G------------------------------------- 
D------------------------------------- 
A-------------------5-3-2------------- 
E-0-0-0-2-0-0-3-0-0------------------- 

e------------------------------------- 
B------------------------------------- 
G------------------------------------- 
D------------------------------------- 
A--------------------0h2-------------- 
E-0-0-0-2-0-0-3-0-0------------------- 

e-------------------------------------| 
B-------------------------------------| 
G-------------------------------------| 
D-------------------------------------| 
A-5-5-5-3-3-3-2-5-3-2-----------------| 
E---------------------5-3-------------| 


Verse: 
e-----------------------------------------------------| 
B-----------------------------------------------------| 
G-------------------------5------5--------------------| 
D-----2-----5------5----5------5--------5------2~~----| 2x
A---2-----5------5----3------3--------5------2--------| 
E-0-----2------3--------------------3------0----------| 
pm. . . . . .  . . .  . . .  . . .  . . .  . . 

e-----------------------------------------------| 
B-----------------------------------------------| 
G-----------------------------------------------|  
D--------------5-5-5-5-7-7-9-9--9-9-9-9-9-9-7---| 2x
A-2-2-4-4-5-5--3-3-3-3-5-5-7-7--7-7-7-7-7-7-5---| 
E-0-0-2-2-3-3-----------------------------------| 

Chorus Gtr 1:
e------------------------------------- 
B-12---------10--------8-------------- 
G----12---------11--------9----------- 
D-------14---------12--------10~------ 
A------------------------------------- 
E------------------------------------- 

e-------------------------------------- 
B--8--------10---------12-------------- 
G----9---------11--------12------------ 
D------10---------12-------14---------- 
A-------------------------------------- 
E-------------------------------------- 

e------------------------------------- 
B-12---------10--------8-------------- 
G----12---------11--------9----------- 
D-------14---------12--------10~------ 
A------------------------------------- 
E------------------------------------- 

e-------------------------------------| 
B--8---------7------------------------| 
G-----9---------7---------------------| 
D-------10---------9---9--7--5~-------| 
A-------------------------------------| 
E-------------------------------------|
I'm not 100% confident with this but i think that its pretty close. 

Chorus rhythm Gtr 2:
e------------------------------------- 
B------------------------------------- 
G-9--7--5--5--7--9-------------------- 
D-9--7--5--5--7--9-------------------- 
A-7--5--3--3--5--7-------------------- 
E------------------------------------- 

third time 
e-------------------------------------|
B-------------------------------------| 
G-9--7--5--5-------9------------------| 
D-9--7--5--5--5----9------------------| 
A-7--5--3--3--5----7------------------| 
E-------------3-----------------------| 

Verse solo Gtr 1 'as we kill them all...': 
e------------------------------------- 
B-------------9-10-12-10-9~----------- 
G-9-11-9-9-11------------------------- 
D------------------------------------- 
A------------------------------------- 
E------------------------------------- 

e-------------------------------------| 
B-----------------9-10-9--------------| 
G-7-7-9-7-7-9/11---------9~-----------| 
D-------------------------------------| 
A-------------------------------------| 
E-------------------------------------| 

Rhythm Gtr 2:
e-------------------------------------| 
B-------------------------------------| 
G---9------------7--------------------| 
D---9--9--7------7--7--2--------------| 
A---7--9--7------5--7--2--------------| 
E------7--5---------5--0--------------| 


Repeat intro

Main solo rhythm:
e----------------------------------------------------- 
B----------------------------------------------------- 
G-------------------------5------5-------------------- 
D-----2-----5------5----5------5--------5------2-~~--- 
A---2-----5------5----3------3--------5------2-------- 
E-0-----2------3--------------------3------0---------- 

e-------------------------------------------| 
B-------------------------------------------| 
G-------------------------5------7------9---| 
D-----2-----5------5----5------7------9-----| 
A---2-----5------5----3------5------7-------| 
E-0-----2-----3-----------------------------| 

Follows solo:
e------------------------------------- 
B--12-10-8--10--8h10p8-7--8--7-------- 
G------------------------------------- 
D--------------------------------10~-- 
A------------------------------------- 
E------------------------------------- 

e-------------------------------------| 
B-8-7----10-8-7--12--10--8~-----------| 
G-----9-------------------------------| 
D-------------------------------------| 
A-------------------------------------| 
E-------------------------------------| 

Bridge Gtr 1: 
e------------------------------------- 
B--5h7p5p3-5-7-5~--1h3p0-1-3-1~------- 
G------------------------------------- 
D------------------------------------- 
A------------------------------------- 
E------------------------------------- 

e------------------------5------------ 
B--5h7p5p3-5-7-5~--5-8-5---7~--------- 
G------------------------------------- 
D------------------------------------- 
A------------------------------------- 
E------------------------------------- 

e------------------------------5b7r5~--------------- 
B-5h7p5p3-5-7-5~---5h7p5p3-5------------------------ 
G--------------------------------------------------- 
D--------------------------------------------------- 
A--------------------------------------------------- 
E--------------------------------------------------- 

e------------------------5------------| 
B--5h7p5p3-5-7-5~--5-8-5---7~---------| 
G-------------------------------------|
D-------------------------------------| 
A-------------------------------------| 
E-------------------------------------| 

Bridge harmony Gtr 2: 
e----------------------------------------------------- 
B-------------------------------------------13b15r13~- 
G--12h14p12p11-12-14-12~---12h14p12p11-12------------- 
D----------------------------------------------------- 
A----------------------------------------------------- 
E----------------------------------------------------- 

e----------------------------------------------------------| 
B-------------------------------12-------15----------------| 
G--12h14p12p11-12-14-12~----12------12------14-------------| 
D----------------------------------------------------------| 
A----------------------------------------------------------| 
E----------------------------------------------------------| 

Last Chorus Gtr 1:
e--------------------------------------------- 
B--------------------------14-15-14----------- 
G----13-13-14-13-13-14-16------------14~------ 
D--------------------------------------------- 
A--------------------------------------------- 
E--------------------------------------------- 

e--------------------------------------------| 
B-----------------------12--14-12------------| 
G--11-11-13-11-11-13-14------------13~-------| 
D--------------------------------------------| 
A--------------------------------------------| 
E--------------------------------------------| 

Rhythm Gtr 2:
e------------------------------------- 
B------------------------------------- 
G---9------------7-------------------- 
D---9--9--7------7--7--2-------------- 
A---7--9--7------5--7--2-------------- 
E------7--5---------5--0-------------- 

e-------------------------------------| 
B-------------------------------------| 
G--9---------7------------------------| 
D--9-9--7----7--5---2-----------------| 
A--7-9--7----5--5---2-----------------| 
E----7--5-------3---0-----------------| 

There you have it, enjoy. I'm sure you'll figure out the song structure yourself. Feel free to make corrections or add the solo.
            
Hard to play? Try these video lessons and learn fast. | Correct




comments powered by Disqus
↑ Back to top | Tablatures and chords are parodies/interpretations of the original songs. You may use it for private study, scholarship, research or language learning purposes only