» » »

Iron Maiden, MontséGur Bass tabs (ver.1)

Artists:  A B C D E F G H I J K L M N O P Q R S T U V W X Y Z # 

MontséGur Bass tabs (ver.1)

Iron Maiden Tabs
Rating:
0/5 (0 votes)
MontséGur lessons Tabs too difficult? Try these video lessons and learn fast
                Iron maiden

This song is the coooooolest of this album and here it comes

Intro
g--------------------------------------
d---------------------------------------
a----------------------------------------5-3-2
e--0000-2222-3333--5-7--00000-2222-3333-

g---------------------------------------
d----------------------------------------
a------------------------5-3-2h3-0h2---
e-0000-2222222-33333-5-7----------------- x4

Verse

g---9---11----12---7--5---7---9-------
d--9---11---12----7--5---7---9-----
a-7---9---10----5---3---5---7----
e-----------------------------------x2

verse fill

after the 2 first add this to the verse

g---------------
d---------------
a-----7--5--
e-------------

Chorus

g----------------------------------------------------------
d----------------------------------------------------------
a---777777-5555555-333333333333-33333333-------------------
e---------------------------------------333333333-00000000-x4

Post Chorus

g-------------------------------------------------------------
d-------------------------------------------------------------
a--77777777--7-2-0>>>-----555555555----------------------------
e-----------------------------------5--0>>>>>----------------x4

: let ring

Repeat verse
repeat intro
repeat verse during 1st solo
repeat chorus during 2nd solo

Then

g--------------------------------------------------------
d---------------------------------------------------5h7-4
a-77777777-7h9----333333333-3h5------7777777777-7h9------
e---------------------------------------------------------

g---------------------------------------------------------
d----------------------------7h9-----------------5h7-4----
a-77777777-7h9----3333333333----77777777777-7h9-----------
e---------------------------------------------------------

Repeat Post chorus

Then

g--------------------------------------------------------
d---------------------------------------------------------
a-7>-2-0>------5>---------------7>-2-0>-----5>------------
e-----------------5-0>-------------------------3-0>>>>>>>-


I didn´t get the last fill so if you´ve got it send it to me

this is my first tab so i hope it´s Ok, i´m from Chile

UP THE IRONS!!!!!!!!!!!!
            

comments powered by Disqus
↑ Back to top | Iron Maiden Bass for MontséGur. Lyrics for acoustic guitar and electric guitar. Tablatures and chords are parodies/interpretations of the original songs. You may use it for private study, scholarship, research or language learning purposes only