>
 >
Montsegur 1

Montsegur 1 Bass Tabs

Iron Maiden - Montsegur 1 chords, tabs, tablatures, lyrics

Guitar lessons | Add/correct | Request | Top 50 tabs Artists:  A B C D E F G H I J K L M N O P Q R S T U V W X Y Z 0-9

Montsegur 1 Bass Tabs – Iron Maiden

CD, Sheet music, Poster

Do you like Montsegur 1? Share with your friends now
Bass TabsBass Tabs v2Bass Tabs v3Drum TabsTabsTabs v2
Intro                      (0:03)               (0:05) Play x4 (0:00 to 0:24)
 G-|-----------------------------------------------------------------|----|------
 D-|-----------------------------------------------------------------|-X4-|------
 A-|-----------------------------532-----------------555-333-222-32--|----|------
 E-|-000-222-333-5h7-000-222-333-----000-222-333-5h7---------------3-|----|------

   Verse1 (0:25) (0:26)   (0:27)                 (0:29) Play x2 (0:25 to 0:36)
 G-|-9-----11-----12--------5-----11-----12--------9----------|----|----------
 D-|-9-----11-----12--------5-----11-----12--------9----------|-X2-|----------
 A-|-7-777--9-999-10-101010-3-333--9-999-10-101010-7-77777777-|----|----------
 E-|----------------------------------------------------------|----|----------

   Verse2 (0:38) (0:38)   (0:39)                 (0:42) Play x2 (0:37 to 0:49)
 G-|-9-----11-----12--------5-----5-----7-----9-----97-|----|-----------------
 D-|-9-----11-----12--------5-----5-----7-----9-----97-|-X2-|-----------------
 A-|-7-777--9-999-10-101010-3-333-3-333-5-555-7-777-75-|----|-----------------
 E-|---------------------------------------------------|----|-----------------

   (0:49)Chorus:"At the Gates...                  (0:55) (0:56) (0:57)   (0:58) (0:59) Play x2 (0:49 to 1:13) 
 G-|-9-----7-----5-----------5-----7-----9-----------9-----7-----5-----------5-----------9----------|----|---
 D-|-9-----7-----5-----------5-----7-----9-----------9-----7-----5-----------5-----5-----9----------|-X2-|---
 A-|-7-777-5-555-3-33333333--3-333-5-555-7-77777777--7-777-5-555-3-33333333--3-333-5-----7-77777777-|----|---
 E-|-------------------------------------------------------------------------------3-333------------|----|---

   (1:14)"As We..(1:15)       (1:17)     (1:18) Play x4 (1:14 to 1:38)
 G-|-9-----------9--------------7---------9-9-------------|----|------
 D-|-9-----------7-777-777-777--7---------7-9-------------|-X4-|------
 A-|-7-777-777------------------5-555-555---7-777-777-777-|----|------
 E-|-----------5------------------------------------------|----|------

  (1:39)Verse3"The Book of old...                    Play x2 (1:39 to 1:50)
 G-|-9-----11-----12--------5-----11-----12--------9----------|----|-------
 D-|-9-----11-----12--------5-----11-----12--------9----------|-X2-|-------
 A-|-7-777--9-999-10-101010-3-333--9-999-10-101010-7-77777777-|----|-------
 E-|----------------------------------------------------------|----|-------

   (1:51)Verse4"The perfect would...                 Play x2 (1:51 to 2:02)
 G-|-9-----11-----12--------5-----5-----7-----9-----97-|----|--------------
 D-|-9-----11-----12--------5-----5-----7-----9-----97-|-X2-|--------------
 A-|-7-777--9-999-10-101010-3-333-3-333-5-555-7-777-75-|----|--------------
 E-|---------------------------------------------------|----|--------------

   (2:03)Chorus                                                                           Play x2 (2:03 to 2:27)            
 G-|-9-----7-----5-----------5-----7-----9-----------9-----7-----5-----------5-----------9----------|----|------
 D-|-9-----7-----5-----------5-----7-----9-----------9-----7-----5-----------5-----5-----9----------|-X2-|------
 A-|-7-777-5-555-3-33333333--3-333-5-555-7-77777777--7-777-5-555-3-33333333--3-333-5-----7-77777777-|----|------
 E-|-------------------------------------------------------------------------------3-333------------|----|------

   (2:28)"As we kill Them...                 Play x4 (2:28 to 2:52)
 G-|-9-----------9--------------7---------9-9-------------|----|---
 D-|-9-----------7-777-777-777--7---------7-9-------------|-X4-|---
 A-|-7-777-777------------------5-555-555---7-777-777-777-|----|---
 E-|-----------5------------------------------------------|----|---

   (2:53)Repeat Intro                                           Play x4 (2:53 to 3:16)
 G-|-----------------------------------------------------------------|----|-----------
 D-|-----------------------------------------------------------------|-X4-|-----------
 A-|-----------------------------532-----------------555-333-222-32--|----|-----------
 E-|-000-222-333-5h7-000-222-333-----000-222-333-5h7---------------3-|----|-----------

  (3:17)Solo             (3:19) (3:20) (3:21)       Play x2 (3:17 to 3:28)
 G-|-9-----11-----12--------5-----11-----12--------9----------|----|------
 D-|-9-----11-----12--------5-----11-----12--------9----------|-X2-|------
 A-|-7-777--9-999-10-101010-3-333--9-999-10-101010-7-77777777-|----|------
 E-|----------------------------------------------------------|----|------

  (3:29)Solo     (3:31)   (3:32)      (3:33) (3:34) Play x2 (3:29 to 3:40)
 G-|-9-----11-----12--------5-----5-----7-----9----------|----|-----------
 D-|-9-----11-----12--------5-----5-----7-----9----------|-X2-|-----------
 A-|-7-777--9-999-10-101010-3-333-3-333-5-555-7-77777777-|----|-----------
 E-|-----------------------------------------------------|----|-----------

  (3:41)Riff   (3:43)     (3:44) (3:45) (3:46)                            (3:51) (3:52) (3:53) Play x2 (3:41 to 4:05)
 G-|-9-----7-----5-----------5-----7-----9-----------9-----7-----5-----------5-----------9----------|----|-----------
 D-|-9-----7-----5-----------5-----7-----9-----------9-----7-----5-----------5-----5-----9----------|-X2-|-----------
 A-|-7-777-5-555-3-33333333--3-333-5-555-7-77777777--7-777-5-555-3-33333333--3-333-5-----7-77777777-|----|-----------
 E-|-------------------------------------------------------------------------------3-333------------|----|-----------
 
  (4:06)Riff2    (4:07)       (4:09)          (4:10) Play x2 (4:06 to 4:17) 
 G-|-9-------------5-------------9--------------------|----|---------------
 D-|-9-------------5-------------9--------------5--7--|-X2-|---------------
 A-|-7-777-777-777-3-333-333-333-7-777-777-777-7-7--5-|----|---------------
 E-|--------------------------------------------------|----|---------------

  (4:18)Riff3     (4:20)       (4:21)          (4:22) Play x2 (4:18 to 4:29)
 G-|-9-------------5-----------------------------------|----|---------------
 D-|-9-------------5-------------5---------------5--7--|-X2-|---------------
 A-|-7-777-777-777-3-333-333-333-5--------------7-7--5-|----|---------------
 E-|-----------------------------3-333-333-333---------|----|---------------

   (4:30)"As We Kill Them...                  Play x4 (4:30 to 4:54) 
 G-|-9-----------9--------------7---------9-9-------------|----|----
 D-|-9-----------7-777-777-777--7---------7-9-------------|-X4-|----
 A-|-7-777-777------------------5-555-555---7-777-777-777-|----|----
 E-|-----------5------------------------------------------|----|----

  (4:55)Chorus                         Play  x4 (4:55 to 5:19)  (5:19)     (5:21)  
 G-|-9-----------9--------------7---------9-9-------------|----|-9-----------9--------------
 D-|-9-----------7-777-777-777--7---------7-9-------------|-X4-|-9-----------7-777-777-777--
 A-|-7-777-777------------------5-555-555---7-777-777-777-|----|-7-777-777------------------
 E-|-----------5------------------------------------------|----|-----------5---------------- 

 (5:22)    (5:24)           (5:25) (5:27)(5:28)   (5:32)
 G-7---------9-9--------------9-------9---7--7--9----------------------12121214141412---------------
 D-7---------7-9--------------9-------7---7--5--9--9/14-12121212141414----------------141414121212--
 A-5-555-555---7-777-777-777--7-777-------5-----7---------------------------------------------------
 E----------------------------------5---------------------------------------------------------------
                                                                          (5:43)
 G---------------------------------------------------------------------------------------------
 D-141414----------------------121212141414--------------------------777997--------------------
 A--------141414121212121214141-------------141414121212-99997777999--------99777---------r-7--
 E--------------------------------------------------------------------------------0000000------

 Dedicada a todos los fans de Iron Maiden en la Republica Dominicana
 y en todo el mundo.





Comments


Popular Iron Maiden tabs & chords
The Wicker Man 1 Bass Tabs
Another Life Drum Tabs
Blood Brothers 6 Tabs
Deja Vu Tabs
Dont Look To The Eyes Of A Stranger Tabs
Drifter Tabs
I've Got The Fire Tabs
Noddlin Donkey Blues Tabs
Rime Of The Ancient Mariner 1 Tabs
Sign Of The Cross 1 Tabs


Song lyrics



↑ Back to top | Tablatures and chords are parodies/interpretations of the original songs. You may use it for private study, scholarship, research or language learning purposes only
© 2014 AZChords.com Contact us | Privacy policy | DMCA | Add/correct tabs | Request tabs | Top 50 tabs