» » »

Iron Maiden, Lord Of Light Tabs (ver.3)

Artists:  A B C D E F G H I J K L M N O P Q R S T U V W X Y Z # 

Lord Of Light Tabs (ver.3)

Iron Maiden Tabs
Rating:
0/5 (0 votes)
Lord Of Light lessons Tabs too difficult? Try these video lessons and learn fast
                ****************************************************************************
****************************************************************************
This should be pretty accurate. Let me know if I missed anything or if there's a 

I try to find out the exact time where there are changes and where certain points 
in the song start, but you may need to listen to the song a couple of times before 
just to get a feel for things.

Good luck :)

Standard tuning throughout

Intro:  0:00 to 0:06
Guitars 1 and 2 Clean tone, let it ring
e|-------0---------|---0-----------0-|-----------0-----|
B|-----1---1-------|-1---1-------1---|-1-------1---1---|
G|---4-------4---4-|-------4---4-----|---4---4-------4-|
D|-2-----------2---|---------2-------|-----2-----------|
A|-----------------|-----------------|-----------------|
E|-----------------|-----------------|-----------------|

Verse 0:06-0:13
e|-------0---------|---0-----------0-|-------0---------|---0-----------0-|
B|-----1---1-------|-1---1-------1---|-----1---1-------|-1---1-------1---|
G|---4-------4---4-|-------4---4-----|---4-------4---4-|-------4---4-----|
D|-2-----------2---|---------2-------|-0-----------0---|---------0-------|
A|-----------------|-----------------|-----------------|-----------------|
E|-----------------|-----------------|-----------------|-----------------|
There are secrets that you keep

0:13-0:28
e|-------0---------|---0-----------0-|-------0---------|---0-----------0-|
B|-----1---1-------|-1---1-------1---|-----1---1-------|-1---1-------1---|
G|---4-------4---4-|-------4---4-----|---4-------4---4-|-------4---4-----|
D|-2-----------2---|---------2-------|-0-----------0---|---------0-------|
A|-----------------|-----------------|-----------------|-----------------|
E|-----------------|-----------------|-----------------|-----------------|
There are secrets that you keep,
e|-------0---------|---0-------------|-------0---------|---0-----------0-|
B|-----1---1-------|-1---1-----------|-----1---1-------|-1---1-------1---|
G|---4-------4---4-|-------4---------|---4-------4---4-|-------4---4-----|
D|-----------------|-----------2-----|-------------0---|---------0-------|
A|-3-----------3---|---------3---3-2-|-0---------------|-----------------|
E|-----------------|-----------------|-----------------|-----------------|
There are secrets that you tell to me alone

0:28-0:42
e|-------0---------|---0-----------0-|-------0---------|---0-----------0-|
B|-----1---1-------|-1---1-------1---|-----1---1-------|-1---1-------1---|
G|---4-------4---4-|-------4---4-----|---4-------4---4-|-------4---4-----|
D|-2-----------2---|---------2-------|-0-----------0---|---------0-------|
A|-----------------|-----------------|-----------------|-----------------|
E|-----------------|-----------------|-----------------|-----------------|
I can't reach things I can't see,
e|-------0---------|---0-------------|-------0---------|---0-----------0-|
B|-----1---1-------|-1---1-----------|-----1---1-------|-1---1-------1---|
G|---4-------4---4-|-------4---------|---4-------4---4-|-------4---4-----|
D|-----------------|-----------2-----|-------------0---|---------0-------|
A|-3-----------3---|---------3---3-2-|-0---------------|-----------------|
E|-----------------|-----------------|-----------------|-----------------|
you don't see this strange world quite the same as me
0:42-0:58
e|-------0---------|---0-----------0-|-------0---------|---0-----------0-|
B|-----1---1-------|-1---1-------1---|-----1---1-------|-1---1-------1---|
G|---4-------4---4-|-------4---4-----|---4-------4---4-|-------4---4-----|
D|-2-----------2---|---------2-------|-0-----------0---|---------0-------|
A|-----------------|-----------------|-----------------|-----------------|
E|-----------------|-----------------|-----------------|-----------------|
Don't deny me what I am,
e|-------0---------|---0-------------|-------0---------|---0-----------0-|
B|-----1---1-------|-1---1-----------|-----1---1-------|-1---1-------1---|
G|---4-------4---4-|-------4---------|---4-------4---4-|-------4---4-----|
D|-----------------|-----------2-----|-------------0---|---------0-------|
A|-3-----------3---|---------3---3-2-|-0---------------|-----------------|
E|-----------------|-----------------|-----------------|-----------------|
nothing hidden but you fail to see the truth

0:58-1:03
e|-------0---------|---0-----------0-|-------0---------|
B|-----1---1-------|-1---1-------1---|-----1---1-------|
G|---4-------4---4-|-------4---4-----|---4-------4---4-|
D|-2-----------2---|---------2-------|-2-----------2---|
A|-----------------|-----------------|-----------------|
E|-----------------|-----------------|-----------------|
These are things you can't reveal.

Interlude:
1:03-1:05
Guitar 1
e|---0-----------0-|
B|-1---1-------1---|
G|-------4---4-----|
D|---------2-------|
A|-----------------|
E|-----------------|
Guitar 2
e|-----------------|
B|-----------------|
G|-----------------|
D|-----------------|
A|-----------------|
E|-----------------|

1:05-1:13
Guitar 1
e|-------0---------|---0-------------|
B|-----1---1-------|-1---1-------1---|
G|---4-------4---4-|-------4---4---4-| X 4
D|-2-----------2---|---------2-------|
A|-----------------|-----------------|
E|-----------------|-----------------|
Guitar 2
e|-----------------|-----------------|
B|-----------------|-----------------|
G|-----------------|-----------------| X 4
D|-9-9-7-9---5-5-7-|-4---5---4-------|
A|-----------------|------------7--5-|
E|-----------------|-----------------|
PM * * * *   * * *   *   *   *  *  *
After the second time through, start this
Guitar 3 (Distortion)
1:13-1:20
e|-------------------|------------------|
B|12-12-10-12--8--10-|-7----8v---7------|
G|-------------------|--------------9-7-| X 2
D|-------------------|------------------|
A|-------------------|------------------|
E|-------------------|------------------|

Back to Verse
1:20-1:38
Guitar 1
e|-------0---------|---0-------------|
B|-----1---1-------|-1---1-------1---|
G|---4-------4---4-|-------4---4---4-| X 4
D|-2-----------2---|---------2-------|
A|-----------------|-----------------|
E|-----------------|-----------------|
These are things you can't reveal
Guitar 2
e|-^---------------|-^---------------|
B|-1---------------|-1---------------|
G|-4---------------|-4---------------| x 5
D|-2---------------|-2---------------|
A|-----------------|-----------------|
E|-----------------|-----------------|

1:38-1:45
Guitar 1 Distortion
e|---------------------------|--------------------------|
B|---------------------------|--------------------------|
G|-9---------9---------9-----|-9--------------5---------|
D|-9---------9---------9-----|-9--------------5----4----|
A|-7---------7---------7-----|-7---7-7-5-5s7-----7----5-|
E|----0-0-0-----0-0-0-----0-0|-----0-0-0----------------|
PM    * * *     * * *     * *      * * *
e|-----------------------|----------------------------|
B|-----------------------|----------------------------|
G|-9-------9--------9----|-9--------------------------|
D|-9-------9--------9----|-9-------------7------5-----|
A|-7-------7--------7----|-7--------7s9-----9-------7-|
E|----0--0----0--0-----0-|----0--0--------------------|
PM    *  *    *  *     *      *  *

Verse: 1:45-1:50
Guitars 1,2,3
e|-----------------------|----------------------|-----------------------|
B|-----------------------|----------------------|-----------------------|
G|-9-------9-------9-----|---9------------------|-7-------7-------7-----|
D|-9-------9-------9-----|---9-------5-----4----|-7-------7-------7-----|
A|-7-------7-------7-----|---7--5s7-----7-----5-|-5-5-5-5-5-5-5-5-5-5-5-|
E|---0-0-0---0-0-0---0-0-|-0--------------------|-----------------------|
PM   * * *   * * *   * *   *                        * * *   * * *   * *
We are part of some strange plan

e|-----------------------|
B|-----------------------|
G|----7------------------|
D|----7--------7----5----|
A|-5--5---7s9-----9----7-|
E|-----------------------|

Fig A 1:50-2:02
e|-----------------------|------------------------|-----------------------|
B|-----------------------|------------------------|-----------------------|
G|-9-------9-------9-----|----9-------------------|-7-------7-------7-----|
D|-9-------9-------9-----|----9--------5-----4----|-7-------7-------7-----|
A|-7-------7-------7-----|----7---5s7-----7-----5-|-5-5-5-5-5-5-5-5-5-5-5-|
E|---0-0-0---0-0-0---0-0-|-0----------------------|-----------------------|
PM   * * *   * * *   * *   *                          * * *   * * *   * *
Why the slaughter of the brotherhood of men?

e|-----------------------|-----------------------|------------------------|
B|-----------------------|-----------------------|------------------------|
G|---7-------------------|-5-------5-------5-----|-------5--5--5--5--5--2-|
D|---7--------7----5-----|-5-------5-------5-----|-------5--5--5--5--5--2-|
A|-5-5---7s9-----9-----7-|-3-3-3-3-3-3-3-3-3-3-3-|-3--3--3--3--3--3--3--0-|
E|-----------------------|-----------------------|------------------------|
PM *                         * * *   * * *   * *   *  *
                          Infernal sacrifice of hell

e|------------------------|------------------|
B|------------------------|------------------|
G|-2-----------2--------7-|-7--7--7--7--7--7-|
D|-2-----------2--------7-|-7--7--7--7--7--7-|  End of Fig A
A|-0--0--0--0--0--0--0--5-|-5--5--5--5--5--5-|
E|------------------------|------------------|
PM    *  *  *     *  *

Verse: Guitars 1,2,3 (Just play Fig A Twice here)
2:02-2:25
e|-----------------------|------------------------|-----------------------|
B|-----------------------|------------------------|-----------------------|
G|-9-------9-------9-----|----9-------------------|-7-------7-------7-----|
D|-9-------9-------9-----|----9--------5-----4----|-7-------7-------7-----|
A|-7-------7-------7-----|----7---5s7-----7-----5-|-5-5-5-5-5-5-5-5-5-5-5-|
E|---0-0-0---0-0-0---0-0-|-0----------------------|-----------------------|
PM   * * *   * * *   * *   *                          * * *   * * *   * *
Fire Breathing, lead the way
e|-----------------------|-----------------------|------------------------|
B|-----------------------|-----------------------|------------------------|
G|---7-------------------|-5-------5-------5-----|-------5--5--5--5--5--2-|
D|---7--------7----5-----|-5-------5-------5-----|-------5--5--5--5--5--2-|
A|-5-5---7s9-----9-----7-|-3-3-3-3-3-3-3-3-3-3-3-|-3--3--3--3--3--3--3--0-|
E|-----------------------|-----------------------|------------------------|
PM *                         * * *   * * *   * *   *  *
                          melts our bod-
e|------------------------|------------------|
B|------------------------|------------------|
G|-2-----------2--------7-|-7--7--7--7--7--7-|
D|-2-----------2--------7-|-7--7--7--7--7--7-|
A|-0--0--0--0--0--0--0--5-|-5--5--5--5--5--5-|
E|------------------------|------------------|
PM    *  *  *     *  *
-ies as they all burn into one                   Re-

e|-----------------------|------------------------|-----------------------|
B|-----------------------|------------------------|-----------------------|
G|-9-------9-------9-----|----9-------------------|-7-------7-------7-----|
D|-9-------9-------9-----|----9--------5-----4----|-7-------7-------7-----|
A|-7-------7-------7-----|----7---5s7-----7-----5-|-5-5-5-5-5-5-5-5-5-5-5-|
E|---0-0-0---0-0-0---0-0-|-0----------------------|-----------------------|
PM   * * *   * * *   * *   *                          * * *   * * *   * *
-venge is living in the past
e|-----------------------|-----------------------|------------------------|
B|-----------------------|-----------------------|------------------------|
G|---7-------------------|-5-------5-------5-----|-------5--5--5--5--5--2-|
D|---7--------7----5-----|-5-------5-------5-----|-------5--5--5--5--5--2-|
A|-5-5---7s9-----9-----7-|-3-3-3-3-3-3-3-3-3-3-3-|-3--3--3--3--3--3--3--0-|
E|-----------------------|-----------------------|------------------------|
PM *                         * * *   * * *   * *   *  *
                          time to look
e|------------------------|------------------|
B|------------------------|------------------|
G|-2-----------2--------7-|-7--7--7--7--7--7-|
D|-2-----------2--------7-|-7--7--7--7--7--7-|
A|-0--0--0--0--0--0--0--5-|-5--5--5--5--5--5-|
E|------------------------|------------------|
PM    *  *  *     *  *
into a new millenium

Interlude
2:25-2:37
Guitar 1: Distortion
e|----------------------|------------------|----------------------|
B|-12-12--10-10---8--10-|-7-----8----7-----|-12-12--10-12--13--10-|
G|----------------------|--------------9-7-|----------------------|
D|--9--9---7--7---5---7-|-4-----5----4-----|--9--9---7--9--10---7-|
A|----------------------|--------------7-5-|----------------------|
E|----------------------|------------------|----------------------|

e|--------------------|
B|-12----8-----10-7-8-|
G|--------------------| X2
D|--9----5------7-4-5-|
A|--------------------|
E|--------------------|

Guitar 2: Distortion
e|-----------------------|-------------------|-----------------------|
B|-----------------------|-------------------|-----------------------|
G|-9-------9-------9-----|---9-------9-9-9-7-|-7-------7-------7-----|
D|-9-------9-------9-----|---9-------9-9-9-7-|-7-------7-------7-----|
A|-7-------7-------7-----|---7-------7-7-7-5-|-5-5-5-5-5-5-5-5-5-5-5-|
E|---0-0-0---0-0-0---0-0-|-0---0-0-0---------|-----------------------|
PM   * * *   * * *   * *   *   * * *             * * *   * * *   * *
e|--------------------|-----------------------|-------------------|
B|--------------------|-----------------------|-------------------|
G|---7--------7-7-7-7-|-9-------9-------9-----|---9-------9-9-9-9-|
D|---7--------7-7-7-7-|-9-------9-------9-----|---9-------9-9-9-9-|
A|-5-5-5-5-5--5-5-5-5-|-7-------7-------7-----|---7-------7-7-7-7-|
E|--------------------|---0-0-0---0-0-0---0-0-|-0---0-0-0---------|
PM *   * * *              * * *   * * *   * *   *   * * *
e|---------------|---------------|
B|---------------|---------------|
G|-5-5-5-5-5-5-7-|-7-7-7-7-7-7-7-|
D|-5-5-5-5-5-5-7-|-7-7-7-7-7-7-7-|
A|-3-3-3-3-3-3-5-|-5-5-5-5-5-5-5-|
E|---------------|---------------|

Verse:
Play Fig A twice. Guitars 1,2,3 Distortion
2:37-3:00
Lyrics:
Spiral path leads through the haze, down into the fiery underworld below
Fire breathing lead the way, Lucifer was just an angel led astray
(If you care enough about the lyrics you can figure out where they go)

Chorus:
Guitars 1,2,3 Distortion
3:00-3:51
e|------------------------------|-----------------------------------|
B|------------------------------|-----------------------------------|
G|------------------------------|-----------------------------------|
D|------------------------------|-5----------7s9---7--------7-------|
A|-2---2--5---5---5-----5--5--2-|-2----------5s7---5--------5-------|
E|-0---0--2---2---3-----3--2--0-|------0--0--------------------0--0-|
PM                                     *  *                    *  *
Free your soul and let it fly
e|------------------------------|-----------------------------------|
B|------------------------------|-----------------------------------|
G|------------------------------|-----------------------------------|
D|-4-------4s7--5--5----5-------|-5--------7--------9--------7------|
A|-2-------2s5--3--3----3-------|-3--------5--------7--------5------|
E|----0--0-----------------0--0-|----0--0-----0--0-----0--0----0--0-|
PM    *  *                 *  *      *  *     *  *     *  *    *  *
Give your life to the Lord of Light

Play Chorus through again.
Lyrics:
Keep your secrets and rain on me
all I see are mysteries

Guitars 1,2,3
e|----|
B|----|
G|----|
D|-2--|
A|-2--|
E|-0--|

Interlude: 3:51-4:05
Guitars 1 and 2 Let ring with Clean Tone
e|------------------------------|---------0---------------0-------|
B|---------0--------------0-----|-------0---0-----------0---0-----|
G|-------0---0----------0---0---|-----0-------0-------0-------0---|
D|-----4-------4------4-------4-|---4---------------4-----------4-| x2
A|---2--------------2-----------|-3---------------3---------------|
E|-0--------------0-------------|---------------------------------| 

Verse part 1: 4:05-4:54
Guitars 1 and 2 Let ring with Clean tone
e|------------------------------|---------0---------------0-------|
B|---------0--------------0-----|-------0---0-----------0---0-----|
G|-------0---0----------0---0---|-----0-------0-------0-------0---|
D|-----4-------4------4-------4-|---4---------------4-----------4-|
A|---2--------------2-----------|-3---------------3---------------|
E|-0--------------0-------------|---------------------------------|
Am I not worthy in your black and blazing eyes?

e|------------------------------|---------0---------------0-------|
B|---------0--------------0-----|-------0---0-----------0---0-----|
G|-------0---0----------0---0---|-----0-------0-------0-------0---|
D|-----4-------4------4-------4-|---4---------------4-----------4-|
A|---2--------------2-----------|-3---------------3---------------|
E|-0--------------0-------------|---------------------------------|
We gather demons in the mirror every day

e|----------0---------------0-------|---------0------------------0-------|
B|-------0----0-----------0---0-----|-----------0------------------0-----|
G|-----5--------5-------5-------5---|-------2-----2-----------2------2---|
D|---7----------------7-----------7-|-----3-----------------3----------3-|
A|-0---------------0----------------|---3-----------------3--------------|
E|----------------------------------|-1---------------1------------------|
The Bridge of Darkness casts a shadow on us all


e|----------0---------------0-------|---------0------------------0-------|
B|-------0----0-----------0---0-----|-----------0------------------0-----|
G|-----5--------5-------5-------5---|-------2-----2-----------2------2---|
D|---7----------------7-----------7-|-----3-----------------3----------3-|
A|-0---------------0----------------|---3-----------------3--------------|
E|----------------------------------|-1---------------1------------------|
And all our sins to you we give this day

Play the Verse part 1 again only for the last bar play the 2nd ending instead
(Lyrics)
Others wait their turn, their lives were meant to last
use yours wisely as the light is fading fast, free your
soul and let it fly  mine was caught I couldn't try. Time re-
-turns again to punish all of us

2nd ending:
e|----------0-----------------0---|
B|------------0-----------------0-|
G|-------2------2----------2------|
D|-----3-----------------3--------|
A|---3-----------------3----------|
E|-1---------------1--------------|

Verse part 2: 4:54-5:15
Distortion - Guitars 1 and 2
e|----------------------------|--------------------------|
B|----------------------------|--------------------------|
G|-9-------9-----9---9-----12-|-9-------9------5---5---8-|
D|-9-------9-----9---9-----12-|-9-------9------5---5---8-|
A|-7-------7-----7---7-----10-|-7-------7------3---3---6-|
E|---0-0-0---0-0-------0-0----|---0-0-0---0-0--------0---|
PM   * * *   * *       * *        * * *   * *        *
We were cast out by our bloody fathers hand

e|----------------------------|--------------------------|
B|----------------------------|--------------------------|
G|-9-------9-----9---9-----12-|-9-------9------5---5---8-|
D|-9-------9-----9---9-----12-|-9-------9------5---5---8-|
A|-7-------7-----7---7-----10-|-7-------7------3---3---6-|
E|---0-0-0---0-0-------0-0----|---0-0-0---0-0--------0---|
PM   * * *   * *       * *        * * *   * *        *
We are strangers in this lonely promised land

e|----------------------------|--------------------------|
B|----------------------------|--------------------------|
G|-9-------9-----9---9-----12-|-9-------9------5---5---8-|
D|-9-------9-----9---9-----12-|-9-------9------5---5---8-|
A|-7-------7-----7---7-----10-|-7-------7------3---3---6-|
E|---0-0-0---0-0-------0-0----|---0-0-0---0-0--------0---|
PM   * * *   * *       * *        * * *   * *        *
We are the shadows of the one unholy ghost

e|----------------------------|--------------------------|
B|----------------------------|--------------------------|
G|-9-------9-----9---9-----12-|-9-------9------5---5---8-|
D|-9-------9-----9---9-----12-|-9-------9------5---5---8-|
A|-7-------7-----7---7-----10-|-7-------7------3---3---6-|
E|---0-0-0---0-0-------0-0----|---0-0-0---0-0--------0---|
PM   * * *   * *       * *        * * *   * *        *
In our nightmare world, the only one we trust

Guitar Solo: A
5:15-5:37
Distortion with pitch shifter. Try to figure out the settings
Guitar 3
e|---------------------------|-----------------------------|
B|-10b----------7------------|-----------------------------|
G|------------9---7-----9----|-----------------------------|
D|---------------------------|-7-9-------------------------|
A|-------------------------9-|----------9s7----5h7-7-5bvs0-|
E|---------------------------|-----------------------------|

e|-14p10-----------------------------------------------|-------------|
B|------12--12-11--------------------------------------|-------------|
G|--------11-----12p11--12p11-----11-------------------|-------------|
D|--------------------14-----14-12--14-12p11-14-12p11--|12p11-----11-|
A|---------------------------------------------------14|-----14-12---|
E|-----------------------------------------------------|-------------|

e|------------------------}
B|------------------------|
G|------------------------|
D|------------------------|
A|-14-12-10-14-12s10p9-10-|
E|------------------------|

e|---------------------12-11--10-7---6------|----------------------|
B|--------------------------------------7-6-|10-7-6----------------|
G|-9vs11--14-14-11--14----------------------|-------9-7-7-5v---7s0-|
D|------------------------------------------|----------------------|
A|------------------------------------------|----------------------|
E|------------------------------------------|----------------------|

e|---------------------------------------|-----------------------------|
B|------------------------------------10-|-10b--10-7-7-7-7-10---7------|
G|-----------------7-7h9p7-----7-9p7-7---|--------------------9---7----|
D|7h9p7-----7-9p7h9-9-----9-7h9-----9----|--------------------------9v-|
A|-----9-7-9-----------------------------|-----------------------------|
E|---------------------------------------|-----------------------------|

Guitars 1 and 2 play this behind Solo A: (Distortion)
e|----------------------------|----------------------------------|
B|----------------------------|----------------------------------|
G|-4-------4-----4---4----7-6-|-4-------4----------------------3-|
D|-4-------4-----4---4----7-6-|-4-------4---------5----5-------3-|
A|-2-2-2-2-2-2-2-2---2--2-5-4-|-2-2-2-2-2----2-2--5----5-------1-|
E|----------------------------|-------------------3----3----3----|
PM   * * *   * *        *         * * *      * *            *
Guitar Solo B: (5:37-5:51)
You may need a slide for this part and the pitch shifter
Listen to the song to tell how long to hold the notes for and for the
exact settings on the pitch shifter
e|--------------------------|--------------------------------------|
B|-------------5///7///10///|10\\\\\\\\\9\\---9\\\12v(hold)(12)\---|
G|--------------------------|--------------------------------------|
D|--------------------------|--------------------------------------|
A|--------------------------|--------------------------------------|
E|--------------------------|--------------------------------------|

e|--------------------------|-5////14///////////19(hold)-----19\---|
B|5/////17v(hold)-----------|--------------------------------------|
G|--------------------------|--------------------------------------|
D|--------------------------|--------------------------------------|
A|--------------------------|--------------------------------------|
E|--------------------------|--------------------------------------|

This is played behind Solo B: Distortion
Guitars 1 and 2
e|-----------------------------------|-----------------------------------|
B|-----------------------------------|-----------------------------------|
G|-----------------------------------|---------------------------------3-|
D|-4-4-4--4-4-4--4-4-4--4-4-4---7-6-2|-4-4-4--4-4-4--4-4-4--4-4-4---5--3-|
A|-2-2-2--2-2-2--2-2-2--2-2-2---5-4-0|-2-2-2--2-2-2--2-2-2--2-2-2---5--1-|
E|-2-2-2--2-2-2--2-2-2--2-2-2---5-4-0|-2-2-2--2-2-2--2-2-2--2-2-2---3----|

Solo C:
5:51-6:13
e|-12wv--|--------|-----------------------------|
B|-------|15b--15-|-15-14-12--------12-12-15p12-|
G|-------|--------|---------14b-14b-------------|
D|-------|--------|-----------------------------|
A|-------|--------|-----------------------------|
E|-------|--------|-----------------------------|
Guitars 1 and 2: Behind Solo C: Fig B
e|---------------|----------------|---------------------|
B|---------------|----------------|---------------------|
G|---------------|----------------|---------------------|
D|---------------|----5--7o----9--|-10-----9-----7------|
A|---------------|----7--9----10--|-12----10-----9------|
E|-------------0-|----------------|-------------------0-|

e|-------------------------------------|--------------------------|
B|----12-15p12----12-------------------|-----------------------17-|
G|-14b--------14b---14br(14)p12--12-14b|(14)p12--12-12s0----------|
D|-----------------------------14------|-------14------------12---|
A|-------------------------------------|----------------12s14-----|
E|-------------------------------------|--------------------------|

e|--------------------------|
B|-17b-17b-17b-17b-17b-17b--|
G|--------------------------|
D|--------------------------|
A|--------------------------|
E|--------------------------|
Guitars 1 and 2 Fig. B. Continued
e|-------------------|-----------------------|----------------|
B|-------------------|-----------------------|----------------|
G|-------------------|-----------------------|----------------|
D|-----5----7----9---|-10-----9---7----------|----5---7-----9-|
A|-----7----9---10---|-12----10---9----------|----7---9----10-|
E|-------------------|---------------------0-|----------------|

e|----14-15-------14-|---15-17-14-15-----14h15p14-|---14----------12-7h8|
B|-17-------17v------|----------------17----------|17-------15----------|
G|-------------------|----------------------------|-------17---16-------|
D|-------------------|----------------------------|---------------------|
A|-------------------|----------------------------|---------------------|
E|-------------------|----------------------------|---------------------|
Guitars 1 and 2 Fig B. Cont.
e|-------------------|-----------------------|------------------------|
B|-------------------|-----------------------|------------------------|
G|-------------------|-----------------------|------------------------|
D|---7---5----4------|----5----7------9------|-10------9-----7--------|
A|---9---7----6------|----7----9-----10------|-12-----10-----9--------|
E|-----------------0-|-----------------------|----------------------0-|

e|7h8p7o-------------------|------------------------------------------------|
B|-----8-7h8p7-7h8p7-------|---------5h6p5-5h6p5----------------------------|
G|------------9-----9-7s5h7|7p5s3-5h7-----7-----7-5s4h5-4---------------7h9w|
D|-------------------------|-----------------------------7-7--5h7p5s4w-9----|
A|-------------------------|------------------------------------------------|
E|-------------------------|------------------------------------------------|
Guitars 1 and 2 play first 2 parts of figure B again

e|----------------|-----------------------|---------------------------|
B|----------------|-----------------------|----15-14-12------12-------|
G|----------------|-12--14s16---12--14----|-12-----------15------14b--|
D|---------12--14-|--------------------14-|---------------------------|
A|-----9s14-------|-----------------------|---------------------------|
E|----------------|-----------------------|---------------------------|

e|---------------------------|----------------------------------|
B|--------15-----12----------|------------12----12--------------|
G|-14h12-----14b----15-14-12-|----12--14-----14-----14b(hold)---|
D|---------------------------|-14-------------------------------|
A|---------------------------|----------------------------------|
E|---------------------------|----------------------------------|
Guitars 1 and 2
e|---------------------------|----------------------------------|
B|---------------------------|----------------------------------|
G|---------------------------|----------------------------------|
D|---------------------------|----------------------------------|
A|---------------------------|----------------------------------|
E|---------------------------|--------------------------------0-|

Interlude: 6:13-6:31
Solo C ends with the last note fading out
Guitars 1 and 2 play:
e|----------------|--------------------|---------------|------------------|
B|----------------|--------------------|---------------|------------------|
G|----------------|--------------------|---------------|------------------|
D|---5----7-----9-|-10-----9----7------|---5----7-----9|-10----9----7-----|
A|---7----9----10-|-12----10----9------|---7----9----10|-12---10----9-----|
E|----------------|------------------0-|---------------|----------------0-|

e|----------------|--------------------|----------------|
B|----------------|--------------------|----------------|
G|----------------|--------------------|----------------| X2
D|---5----7-----9-|-7------5----4------|---5----7-----9-|
A|---7----9----10-|-9------7----6------|---7----9----10-|
E|----------------|------------------0-|----------------|

1st Ending                      2nd Ending
e|---------------------|        e|---------------|
B|---------------------|        B|---------------|
G|---------------------|        G|---------------|
D|-10-----9-----7------|        D|-10----9----7--|
A|-12----10-----9------|        A|-10---10----9--|
E|-------------------0-|        E|---------------|

Back to Chorus x3
6:13-7:17
e|------------------------------|-----------------------------------|
B|------------------------------|-----------------------------------|
G|------------------------------|-----------------------------------|
D|------------------------------|-5----------7s9---7--------7-------|
A|-2---2--5---5---5-----5--5--2-|-2----------5s7---5--------5-------|
E|-0---0--2---2---3-----3--2--0-|------0--0--------------------0--0-|
PM                                     *  *                    *  *
Free your soul and let it fly
e|------------------------------|-----------------------------------|
B|------------------------------|-----------------------------------|
G|------------------------------|-----------------------------------|
D|-4-------4s7--5--5----5-------|-5--------7--------9--------7------|
A|-2-------2s5--3--3----3-------|-3--------5--------7--------5------|
E|----0--0-----------------0--0-|----0--0-----0--0-----0--0----0--0-|
PM    *  *                 *  *      *  *     *  *     *  *    *  *
Give your life to the Lord of Light

Lyrics:
Keep your secrets and rain on me
all I see are mysteries

Guitars 1,2,3
e|----|
B|----|
G|----|
D|-2--|
A|-2--|
E|-0--|

Outro:
7:17-7:25
e|-----------|-------------------------|--------------|
B|-----------|-------------------------|--------------|
G|-----------|-9--9--9--9------9---7---|-9------------|
D|-----------|-9--9--9--9------9---7---|-9------------|
A|-----------|-7--7--7--7------7---5---|-7------------|
E|-----------|-------------------------|--------------|


And... that's it


b = bend
v = vibrato
w = whammy bar
(n) = ghost note
/ = slide
\\\ or //// is using a slide
PM = palm mute
h = hammer on
p = pull off

Think that's all I used in this song. 
If I missed anything let me know
            
Submit corrections

comments powered by Disqus
↑ Back to top | Iron Maiden Tabs for Lord Of Light. Lyrics for acoustic guitar and electric guitar. Tablatures and chords are parodies/interpretations of the original songs. You may use it for private study, scholarship, research or language learning purposes only