>
 >
Lord Of Light 1

Lord Of Light 1 Guitar Tabs

Iron Maiden - Lord Of Light 1 chords, tabs, tablatures, lyrics

Guitar lessons | Add/correct | Request | Top 50 tabs Artists:  A B C D E F G H I J K L M N O P Q R S T U V W X Y Z 0-9

Lord Of Light 1 Guitar Tabs – Iron Maiden

CD, Sheet music, Poster

Do you like Lord Of Light 1? Share with your friends now
Bass TabsTabsTabs v2Tabs v3
Adrian/jan
------------------0------------------------------------------|
------------1---------1--------------------------------------|
-------4------------------4---------x4-----------------------|
--2----------------------------------------------------------|
-------------------------------------------------------------|
-------------------------------------------------------------|

THERE ARE SECRETS THAT YOU KEEP...
-----------------0--------------------------0----------------------0--|
-------------1------1------------------1-------1--------------1-------|
--------4----------------4--------4----------------4------4-----------|
---2--------------------------2-------------------------2-------------|
----------------------------------------------------------------------|
----------------------------------------------------------------------|

---------------0-----------------------0------------------------0-----|
-----------1------1---------------1-------1---------------1-----------|
-------4--------------4-------4---------------4------4----------------|
---0----------------------0-----------------------0-------------------|
----------------------------------------------------------------------|
----------------------------------------------------------------------|

----------------0----------------------0---------------------0--------|
-----------1-------1---------------1-----1--------------1-------------|
------4----------------4-------4-------------4------4-----------------|
--2-------------------------2---------------------2-------------------|
----------------------------------------------------------------------|
----------------------------------------------------------------------|

-------------0---------------------0-----------------------0----------|
---------1------1--------------1------1---------------1---------------|
-----4--------------4------4--------------4------4--------------------|
-0----------------------0---------------------0-----------------------|
----------------------------------------------------------------------|
----------------------------------------------------------------------|

------------0---------------------0-----------------------0-----------|
--------1-------1--------------1------1----------------1-----1--------|
----4---------------4------4--------------4---------4-----------4-----|
----------------------------------------------------------------------|
3----------------------3---------------------3-2-0--------------------|
----------------------------------------------------------------------|

----------------0------------------------0----------------------------|
------------1-------1----------------1------1-------------------------|
--------4---------------4--------4---------------4--------------------|
---0-------------------------0------------------------0---------------|
----------------------------------------------------------------------|
----------------------------------------------------------------------|

adrian
----------------------------------------------------------------------|
----------------------------------------------------------------------|
----------------------------------------------------------------------|
---9-9-7-9--5-5-7-4-4-5-4---------------------------------------------|
----------------------------7-5---------------------------------------|
----------------------------------------------------------------------|
slightly palm muted

dave
----------------------------------------------------------------------|
--12-12-------12------------------------------------------------------|
----------14-------12-14--11-12-11------------------------------------|
-------------------------------------14-12----------------------------|
----------------------------------------------------------------------|
----------------------------------------------------------------------|
women tone

adrian distortion
----------------------------------------------------------------------|
----------------------------------------------------------------------|
--9----------9-----------9-------9------------------------------------|
--9----------9-----------9-------9--------5--------4------------------|
--7---7-7-7--7----7-7-7--7---7---7---/7-------7--------5--------------|
----------------------------------------------------------------------|

----------------------------------------------------------------------|
----------------------------------------------------------------------|
--9---------9----------9------9-----9---------------------------------|
--9---------9----------9------9-----9----------7-------5--------------|
--7--7-7-7--7--7-7-7---7---7--7--7--7-----/9------9-------7-----------|
----------------------------------------------------------------------|

verse1
----------------------------------------------------------------------|
----------------------------------------------------------------------|
--9--------------------------7------------------5----2-----7----------|
--9----------5------4--------7--------7---------5----2-----7----------|
--7-----/7------7-------5----5----/9------9-----3----0-----5----------|
----------------------------------------------------------------------|

adrian lead
----------------------------------------------------------------------|
----------------------------------------------------------------------|
----------------------------------------------------------------------|
--9-9-7-9-5-7-4-5-4----------9-9-7-9-10-7-9-x-5-7-4-5-----------------|
----------------------7-5---------------------------------------------|
----------------------------------------------------------------------|

dave lead
------------------------------------------------------------------------|
-12-12------12-------------------------12-12----12-13----12-------------|
--------14------12-14-11-12-11---------------14-------14----12-14-11-12-|
--------------------------------14-12-----------------------------------|
------------------------------------------------------------------------|
------------------------------------------------------------------------|

jan gallop
------------------------------------------------------------------------|
------------------------------------------------------------------------|
--------------------------------------------------------------7---------|
--9---------------------7----------------9----------------5---7---------|
--7--7-7-7-7-7-7-7-7----5--5-5-5-5-5-5---7-7-7-7-7-7-7-7--3---5---------|
------------------------------------------------------------------------|

go back to verse then chorus below

--------------------------------------------------------------------|
--------------------------------------------------------------------|
--------------------------------------------------------------------|
-----------------------5--9--7----4---7--5----5--7--9--7------------|
-2-2-5-5---------------3--7--5----2---5--3----3--5--7--5------------|
-0-0-2-3--3-3-3-3-2-0-------------------------------0---------------|

--------------------------------------------------------------------|
--------------------------------------------------------------------|
--------------------------------------------------------------------|
----------------------------------------2---------------------------|
----------------------------------------2---------------------------|
----------------------------------------0---------------------------|

clean
--------------------------------------------------------------------|
------------------0-------------------------------0-----------------|
--------------0-------0-----------------------0------0--------------|
----------4---------------4---------------4--------------4----------|
------2------------------------2------2-----------------------------|
--0--------------------------------0--------------------------------|

--------------------------------------------------------------------|
------------------0----------------------------------0--------------|
--------------0------0----------------------0-----------0-------0---|
----------4--------------4--------------4-------4----------4--------|
------3----------------------3------3-------------------------------|
--0-----------------------------------------------------------------|

---------------------0-------------------------0--------------------|
-------------1-0-1-------1------------------1------1-0-1------------|
---------2--------------------2-------------------------------------|
-----2----------------------------2------2--------------------------|
-0-----------------------------------0------------------------------|
--------------------------------------------------------------------|

-----------------0------------------------------0-------------------|
---------1-0-1------1------------------------1------1---------------|
--------------------------2---------------2-------------2-----------|
---3--------------------------3-------3-----------------------------|
-----------------------------------0--------------------------------|
--------------------------------------------------------------------|


distortion
--------------------------------------------------------------------|
--------------------------------------------------------------------|
--------------------------------------------------------------------|
----9-----------12-11--------7---------9-------5------8-------------|
----7-----------10--9--------5---------7-------3------6-------------|
----0----------------------------------0----------------------------|


adrian solo
-----------------------------------------------------------------|
-----------------------------------------------------------------|
--3b-------------------------------------------------------------|
---------3h4--------------------7h9-9-7--------------------------|
----------------5~~~----7h9---------------9/7-5v-5h7-5h7-7/5~----|
-----------------------------------------------------------------|

--------------------------------------------------------------------------|
--------------------------------------------------------------------------|
--4h7p4-----4-------------------------------------------------------------|
---------7-----5-7-5-7-5-4-5---4------------------------------------------|
-----------------------------7----7-5-7-5-7-5-4-5-4-----4-----------------|
-----------------------------------------------------7----7-5-7-5-3-5-3-2-|

-------------------------------------------------------------------------|
-------------------------------------------------------------------------|
-------------------9-8br8-7--------------------------------------4-------|
------7-7------7--------------9-8-7------7-8------7----------------------|
--9---------9-------------------------9--------9------9-8-7--5-5~~--5----|
-------------------------------------------------------------------------|

-------------------------------------------------------------------------|
-------------------------------------------------------------------------|
-------------------------7-----7-9-7---------7-9-7-----7-----7-----------|
--7-9-7---------7-9-7-9-----9---------9-7-9---------9-----9--------------|
---------9-7-9-----------------------------------------------------------|
-------------------------------------------------------------------------|

-------------------------------------------------------------------------|
--10b-r-10-7---7-7-7h10-------7------------------------------------------|
--------------------------9-------7--------------------------------------|
----------------------------------------9~~~-----------------------------|
-------------------------------------------------------------------------|
-------------------------------------------------------------------------|
ths is close on some parts the reason its hard to tab because h is using
a wammy octave pedal god knows why but he is..

----------------------------------------------------------------------|
----------------------------------------------------------------------|
----------------------------------------------------------------------|
---9--------12--11------7---------9----------5--------8---------------|
---9--------12--11------7---------9----------5--------8---------------|
---7--------10---9------5---------7----------3--------6---------------|

adrian using the pedal plays these really high pitch notes
-12-14----17-----16---/19-----/\/24-----off neck----------------------|
---------------------------------------------------------10-/12-------|
----------------------------------------------------------------------|
----------------------------------------------------------------------|
----------------------------------------------------------------------|
----------------------------------------------------------------------|

chords for daves solo
----------------------------------------------------------------------|
----------------------------------------------------------------------|
---9--------------5--------4--------2-----------7---------------------|
---9--------------5--------4--------2-----------7---------------------|
---7--------------3--------2--------0-----------5---------------------|
----------------------------------------------------------------------|
there are some fills between each chord but they are too low in the mix for my ears to 
out clearly what they are soo here's just the chords :)

-------------------------------------------------------------------------|
-------------------------------------------------------------------------|
-------------------------------------------------------------------------|
-------5-----4-----5-----7-----5------4-------5---4----5----7---5---4----|
--7-7-----7-----7-----7-----7------7-----3-3----3----3----3---3---3------|
-------------------------------------------------------------------------|

-------------------------------------------------------------------------|
-------------------------------------------------------------------------|
-------------------------------------------------------------------------|
-----2----4-----5-----4-----2-----1-------2-----4-----5----7---5-----4---|
-2-2----2-----2----2-----2-----2-----0-0-----0-----0-----0---0----0------|
-------------------------------------------------------------------------|

back to chorus then this

-------------------------------------------------------------------|
-------------------------------------------------------------------|
-drum x-x-x-x------------------------------------------------------|
------------------------9-9-9-9-9----7----9------------------------|
------------------------7-7-7-7-7----5----7------------------------|
-------------------------------------------------------------------|

done:)





Comments


Popular Iron Maiden tabs & chords
Can I Play With Madness 1 Chords
22, Acacia Avenue 2 Tabs
Blood On The World's Hands 2 Tabs
Die With Your Boots On Tabs
Fear Of The Dark 8 Tabs
Holy Smoke Tabs
Invaders Tabs
Rainmaker Intro Tabs
Seventh Son Of A Seventh Son Tabs
The Assassin Tabs


Song lyrics



↑ Back to top | Tablatures and chords are parodies/interpretations of the original songs. You may use it for private study, scholarship, research or language learning purposes only
© 2014 AZChords.com Contact us | Privacy policy | DMCA | Add/correct tabs | Request tabs | Top 50 tabs