>
 >
Lord Of Light

Lord Of Light Bass Tabs

Iron Maiden - Lord Of Light chords, tabs, tablatures, lyrics

Guitar lessons | Add/correct | Request | Top 50 tabs Artists:  A B C D E F G H I J K L M N O P Q R S T U V W X Y Z 0-9

Lord Of Light Bass Tabs – Iron Maiden

CD, Sheet music, Poster

Do you like Lord Of Light? Share with your friends now
Bass TabsTabsTabs v2Tabs v3
----------------------------------------------------------------------------
			     Lord Of Light - Iron Maiden
----------------------------------------------------------------------------


Tuning: Standard


G|------9------9------------9------9-------------9------9------------9----9|
D|---9----(9)-----9------9----(9)-----9-------9----(9)-----9------9-----9--|
A|7-------------------7--------------------7-------------------7-----------|
E|-------------------------------------------------------------------------|
There Are Secrets That You Keep    Verse 1
G|------9------9------------9------9-------------9------9-|
D|.---9----(9)-----9------9----(9)-----9-------9-----9----|
A|.7-------------------7--------------------7-------------|
E|--------------------------------------------------------|

G|------7-----7-------------7-----7--------------7-----7--|
D|---7-----7-----7-------7-----7-----7--------7-----7----.|
A|5-------------------5--------------------5-------------.|X2
E|--------------------------------------------------------|

G|------5-----5-------------5-----5--------------5-----5--|
D|---5-----5-----5-------5-----5-----5--------5-----5-----|
A|3-------------------3--------------------3--------------|
E|--------------------------------------------------------|
Tell To Me Alone
G|------2-----2-------------7-----7--------------7-----7--|
D|---2-----2-----2-------7-----7-----7--------7-----7-----|
A|0-------------------5--------------------5--------------|
E|--------------------------------------------------------|

G|------9------9------------9------9-------------9------9-|
D|.---9----(9)-----9------9----(9)-----9-------9-----9----|
A|.7-------------------7--------------------7-------------|
E|--------------------------------------------------------|

G|------7-----7-------------7-----7--------------7-----7--|
D|---7-----7-----7-------7-----7-----7--------7-----7-----|
A|5-------------------5--------------------5--------------|
E|--------------------------------------------------------|

G|------5-----5-------------5-----5--------------5-----5--|
D|---5-----5-----5-------5-----5-----5--------5-----5-----|
A|3-------------------3--------------------3--------------|
E|--------------------------------------------------------|

G|------2-----2-------------7-----7--------------7-----7--|
D|---2-----2-----2-------7-----7-----7--------7-----7----.|
A|0-------------------5--------------------5-------------.|X2
E|--------------------------------------------------------|


G|-------9------9------------9------9-------------9-----9--|
D|.---9----(9)-----9------9----(9)-----9-------9-----9----.|
A|.7-------------------7--------------------7-------------.|X9
E|---------------------------------------------------------|
 
G|----------------9----------------------------------------|
D|----------------9----------------------------------------|
A|----------------7----------------------------------------|
E|----------------0----------------------------------------|
1:44     Verse 2
G|---------------------------------------------|
D|.--------------------------------------------|
A|.---7--777--7--777--7--777--7-7-7-7-7-7-7----|
E|---------------------------------------------|

G|---------------------------------------------|
D|--------------------------------------------.|
A|----5--555--5--555--5--555--5-5-5-5-5-5-5---.|X2
E|---------------------------------------------|
 
G|--------------------------------------------|
D|--------------------------------------------|
A|---3--333--3--333--3--333--3-3-3-3-3-3-3----|
E|--------------------------------------------|

G|--------------------------------------------|
D|--------------------------------------------|
A|-----0--000--0--000--5---5-5-5-5-5-5-5------|
E|--------------------------------------------|

G|---------------------------------------------|
D|.--------------------------------------------|
A|.---7--777--7--777--7--777--7-7-7-7-7-7-7----|
E|---------------------------------------------|

G|---------------------------------------------|
D|---------------------------------------------|
A|----5--555--5--555--5--555--5-5-5-5-5-5-5----|
E|---------------------------------------------|

G|---------------------------------------------|
D|---------------------------------------------|
A|---3--333--3--333--3--333--3-3-3-3-3-3-3-----|
E|---------------------------------------------|

G|---------------------------------------------|
D|--------------------------------------------.|
A|-----0--000--0--000--5---5-5-5-5-5-5-5------.|X2
E|---------------------------------------------|


Interlude
G|--------------------------------------------|
D|--------------------------------------------|
A|--7--777--777--777--777--777--777--777ó775--|
E|--------------------------------------------|

G|-------------------------------------------|
D|-------------------------------------------|
A|--555--555--555--555--555--555--555--557---|
E|-------------------------------------------|

G|--------------------------------------------|
D|--------------------------------------------|
A|----777--777--777--777--777--777--777ó773---|
E|--------------------------------------------|

G|---------------------------------------------|
D|---------------------------------------------|
A|---333--333--333--335--555--555--555--557----|
E|---------------------------------------------|
Verse 3
G|---------------------------------------------|
D|.--------------------------------------------|
A|.---7--777--7--777--7--777--7-7-7-7-7-7-7----|
E|---------------------------------------------|

G|---------------------------------------------|
D|---------------------------------------------|
A|----5--555--5--555--5--555--5-5-5-5-5-5-5----|
E|---------------------------------------------|

G|---------------------------------------------|
D|---------------------------------------------|
A|---3--333--3--333--3--333--3-3-3-3-3-3-3-----|
E|---------------------------------------------|

G|---------------------------------------------|
D|--------------------------------------------.|
A|-----0--000--0--000--5---5-5-5-5-5-5-5------.|X2
E|---------------------------------------------|
Chorus
G|--------------------------------------------------------------------|
D|.------------------------------------------------------------------.|
A|.-----------------------3---/7-5--5-5--2---/5--3--3-3--3--5--7--5--.|X4
E|-0--2-3--3-3-3-3-2-0------------------------------------------------|

G|-------------------------------------|
D|-------------------------------------|
A|-------------------------------------|
E|------------------0------------------|

 

At X3 Verse 4 Begins
G|-------9------------9---9---9--------5-----------5---5---5---|
D|.----9----9-------9---9---9--------5----5------5---5---5----.|
A|.-7---------7--7----------------3---------3--3--------------.|X4
E|-------------------------------------------------------------|

G|--------2-----------2---2---2-------------------------------|
D|.-----2----2------2---2---2----------3-----------3---3-----.|
A|.--0---------0-0------------------3----3------3---3---3----.|X2
E|------------------------------1----------1-1----------------|

G|-------9------------9---9---9--------5-----------5---5---5---|
D|.----9----9-------9---9---9--------5----5------5---5---5----.|
A|.-7---------7--7----------------3---------3--3--------------.|X2
E|-------------------------------------------------------------|

G|--------2-----------2---2---2------------------------------|
D|.-----2----2------2---2---2----------3----------3---3-----.|
A|.--0---------0-0------------------3----3-----3---3---3----.|X2
E|------------------------------1----------1-1---------------|
Pre-solo (The Rhythm Changes Here So Itís Up To Your Own Interpretation) 
G|------------------------------------------------------|
D|------------------------------------------------------|
A|-777--7-7-7--7-7-7--7--10-9--777--7-7-7--7--3-3--3-6--|X2
E|------------------------------------------------------|
Solo (The Rhythm Changes Here So Itís Up To Your Own Interpretation)
G|--------------------------------------------------------|
D|.------------------------------------------------------.|
A|.------------------------------------------------------.|X8
E|--777--7-7-7--7-7-7--7--10-9--777--7-7-7--7--3-3--3-6---|
More Solo
G|-----------------------------------------------------------------|
D|.---------------------------------------------------------------.|
A|.-7--7-7-7-7-7--3--3-3-3-3-3--2--2-2-2-2-2---0--0-0-0--5--5-5-5-.|X5
E|-----------------------------------------------------------------|

Chorus
G|--------------------------------------------------------------------|
D|.------------------------------------------------------------------.|
A|.-----------------------3---/7-5--5-5--2---/5--3--3-3--3--5--7--5--.|X4
E|-0--2-3--3-3-3-3-2-0------------------------------------------------|
Outro
G|-----------------------------|
D|-----------------------------|
A|----------7-7-7-7--7--5-7\---|
E|---0-------------------------|










| /  slide up
| \  slide down
| h  hammer-on
| p  pull-off
| ~  vibrato
| +  harmonic
| x  Mute note
============================================================================





Comments


Popular Iron Maiden tabs & chords
Can I Play With Madnesss Bass Tabs
Phantoom Of The Opera Bass Tabs
2 Minutes To Midnight Tabs
Another Life 1 Tabs
From Here To Eternity 2 Tabs
Invaders Tabs
Invaders 1 Tabs
Moonchild 1 Tabs
Seventh Son Of A Seventh Son 1 Tabs
The Evil That Men Do 1 Tabs


Song lyrics



↑ Back to top | Tablatures and chords are parodies/interpretations of the original songs. You may use it for private study, scholarship, research or language learning purposes only
© 2014 AZChords.com Contact us | Privacy policy | DMCA | Add/correct tabs | Request tabs | Top 50 tabs