» » »

Iron Maiden, Hallowed Be Thy Name Bass tabs (ver.3)

Artists:  A B C D E F G H I J K L M N O P Q R S T U V W X Y Z # 

Hallowed Be Thy Name Bass tabs (ver.3)

Iron Maiden Tabs
 Rating:
4/5 (4 votes)
Hallowed Be Thy Name lessons Tabs too difficult? Try these video lessons and learn fast
1
                (Intro) (I am sure you know this)

(Main Riff x4)   
-----------------------------|-----------------------------|
-----------------------------|-----------------------------|
--7--7-7-7--7-7-7--7-7-7--7--|--3--3-3-3--3-3-3--3-3-3--3--|
-----------------------------|-----------------------------|

-----------------------------|-------------------------------|
-----------------------------|-------------------------------|
--5--5-5-5--5-5-5--5-5-5--5--|--7--7-7-7--7-7--10-9-7-10-9-7-|
-----------------------------|-------------------------------|


(Verse 1 x2)
-------------------------|-------------------------|
-------------------------|-------------------------|
--7----------------------|--3----------------------|
----------------------3--|----------------------5--|

-------------------------|----------------------------|
-------------------------|--2-----------------5-4-2-0-|
--5-------------------2--|------2---3---2-3-2---------|
-------------------------|----------------------------|


(Verse 2 x2)
-----------------------------|-----------------------------|
-----------------------------|-----------------------------|
--7--7-7-7--7-7-7--7-7-7--7--|--3--3-3-3--3-3-3--3-3-3--3--|
-----------------------------|-----------------------------|

-----------------------------|----------------------------|
-----------------------------|--2-----------------5-4-2-0-|
--5--5-5-5--5-5-5--5-5-5--5--|------2---3---2-3-2---------|
-----------------------------|----------------------------|


(Main Riff x2)


(Interlude 1 x2)
-----------------------------|--------------------------------|
----------------9-----9------|----------9--------------9------|
--7------7-9-10---------10-9-|--7--9-10---10-9--7-9-10---10-9-|
-----------------------------|--------------------------------|

-----------------------------|--------------------------------|
----------------9-----9------|----------9--------------9------|
---------7-9-10---------10-9-|-----9-10---10-9--7-9-10---10-9-|
--8--------------------------|--8-----------------------------|


(Verse 3 x2)
------------------------------|------------------------------|
------------------------------|------------------------------|
--7--7-7-7--7-7-7--7-7-7--7-7-|--7--7-7-7--7-7-7--7-7-7--7-5-|
------------------------------|------------------------------|

------------------------------|------------------------------|
------------------------------|------------------------------|
--3--3-3-3--3-3-3--3-3-3--3-3-|--3--3-3-3--3-3-3--3-3-3--3-5-|
------------------------------|------------------------------|


(Main Riff x4)


(Verse 3 x2)


(Bass Fill)
-------------------|---------------------|-------------------|
-------------------|---------------------|-------------------|
--7----------------|---------------------|--7----------------|
-------------------|------------------7--|-------------------|

-------------------|---------------------|-------------------|
-------------------|---------------------|-------------------|
-------------------|--3------------------|-------------------|
----------------3--|---------------------|----------------7--|

-------------------|-------------------|
-------------------|-------------------|
--7----------------|-------------------|
-------------------|-------------------|


(Interlude 2 x4)
------------------------------------|
--------------9---------------------|
--7-9-10-9-10---10-9-10-9-7---------|
----------------------------10-8-10-|


(Solo Riff x6)
-----------------------------|-----------------------------|
-----------------------------|---------------5-4-----------|
-7-7-7-7--7-7--7-7-7-7--7--7-|-7-7-7-7--7-7------5--3-2----|
-----------------------------|--------------------------3--|

-----------------------------|-----------------------------|
-----------------------------|---------------5-4-----------|
-5-5-5-5--5-5--5-5-5-5--5--5-|-5-5-5-5--5-5------5--3-2----|
-----------------------------|--------------------------3--|


(Solo End x4)
-----------------------------|-----------------------------|
-----------------------------|-----------------------------|
-7-7-7-7--7-7--7-7-7-7--7--7-|-7-7-7-7--7-7--7-7-7-7--7--7-|
-----------------------------|-----------------------------|

-----------------------------|
-----5----------5------------|
--7-----7--5-7-----7--5-7----|
-----------------------------|


(Main Riff x2)


(Verse 2 x2)


(Main Riff x2)


(Outro)
-------------------|---------------------|-------------------|
-------------------|---------------------|-------------------|
--7----------------|---------------------|--5----------------|
-------------------|------------------5--|-------------------|

-------------------|---------------------|-------------------|
-------------------|---------------------|-------------------|
-------------------|--3------------------|-------------------|
----------------3--|---------------------|----------------5--|

-------------------|-------------------|-----------------------|
-------------------|-------------------|-----------------------|
--5----------------|-------------------|--7-7-7-7-7-7-7-7-7-7-7|
-------------------|----------------7--|-----------------------|

-------------------|
-------------------|
--7-7-7-7--7-7-7-7-|
-------------------|
            
Submit corrections

comments powered by Disqus
↑ Back to top | Iron Maiden Bass for Hallowed Be Thy Name. Lyrics for acoustic guitar and electric guitar. 1 Tablatures and chords are parodies/interpretations of the original songs. You may use it for private study, scholarship, research or language learning purposes only