» » »

Hallowed Be Thy Name Tabs (ver.3)

Artists:  A B C D E F G H I J K L M N O P Q R S T U V W X Y Z # 

Hallowed Be Thy Name Tabs (ver.3)

Iron Maiden
Rating:
0/5 (0 votes)

Tabs too difficult? Try these video lessons and learn fast.
                Intro:
E-|-----7-5--3--2--3--2--0-2--|----7-5--3--2--3--2--0-----||
B-|---------------------------|------------------------4--||
G-|---------------------------|---------------------------||
D-|-----5-4--2--0--2--0----0--|----5-4--2--0--2--0--------||
A-|----------------------3----|---------------------3--2--||
E-|-0-------------------------|-0-------------------------||

  -|---7-------7------|---7-------7------|---7-------7------|---7-------7-----||
B-|-----7-8-----7-8--|-----7-8-----7-8--|-----7-8-----7-8--|-----7-8-----7-8-||
G-|-9-------9--------|-9-------9--------|-9-------9--------|-9-------9-------||
D-|------------------|------------------|------------------|-----------------||
A-|------------------|------------------|------------------|-----------------||
E-|------------------|------------------|------------------|-----------------||
            
Tabs too difficult? Try these video lessons and learn fast.


comments powered by Disqus
↑ Back to top | Tablatures and chords are parodies/interpretations of the original songs. You may use it for private study, scholarship, research or language learning purposes only