» » »

Iron Maiden, Hallowed Be Thy Name Bass tabs (ver.1)

Artists:  A B C D E F G H I J K L M N O P Q R S T U V W X Y Z # 

Hallowed Be Thy Name Bass tabs (ver.1)

Iron Maiden Tabs
Rating:
0/5 (0 votes)
Hallowed Be Thy Name lessons Tabs too difficult? Try these video lessons and learn fast
                
HALLOWED BE THY NAME (Bassline)
As recorded by Iron Maiden
(From the 1982 Album THE NUMBER OF THE BEAST)

	

Words and Music by Steve Harris
Arranged by Iron Maiden

Gtr I (E A D G) - 'Untitled'

   Intro
    Slowly Q=82
   4/4
    Gtr I
    W          W          W          W     3x
||-----------|----------|----------|-------||
||o----------|----------|----------|------o||
||o----------|----------|----------|------o||
||--0--------|-0--------|-0--------|-0-----||


    W          H    +Q   S E.   W          W
||-----------|----------------|----------|-------||
||o----------|----------------|----------|------o||
||o-3--------|-5----(5)--5h7--|----------|------o||
||-----------|----------------|-0--------|-0-----||


   Verse
    Faster Q=120
    E S S E S S E S S E E   E S S E S S E S S E E
||------------------------|-----------------------|
||o-----------------------|-----------------------|
||o-7-7-7-7-7-7-7-7-7-7-7-|-3-3-3-3-3-3-3-3-3-3-3-|
||------------------------|-----------------------|


  E S S E S S E S S E E   E S S E E S S E S S E  4x
|-----------------------|------------------------||
|-----------------------|-----------5-4---5-4---o||
|-5-5-5-5-5-5-5-5-5-5-5-|-7-7-7-7-7-----7-----7-o||
|-----------------------|------------------------||


    Q  H    E E   Q  H    E E   Q  H    E E   E. E +S  E +S  S S S S S S S
||--------------|-------------|-------------|--------------------------------||
||o-------------|-------------|-------------|-2--------------------5-4------o||
||o-7-----------|-3---------0-|-5---------2-|----2-(2)-3-(3)-2-3-2-----7-5--o||
||------------3-|-------------|-------------|--------------------------------||


    E S S E S S E S S E E   E S S E S S E S S E E
||------------------------|-----------------------|
||o-----------------------|-----------------------|
||o-7-7-7-7-7-7-7-7-7-7-7-|-3-3-3-3-3-3-3-3-3-3-3-|
||------------------------|-----------------------|


  E S S E S S E S S E E   E. E +S  E +S  S S S S S S S
|-----------------------|--------------------------------||
|-----------------------|-2--------------------5-4------o||
|-5-5-5-5-5-5-5-5-5-5-5-|----2-(2)-3-(3)-2-3-2-----7-5--o||
|-----------------------|--------------------------------||


    E S S E S S E S S E E   E S S E S S E S S E E
||------------------------|-----------------------|
||o-----------------------|-----------------------|
||o-7-7-7-7-7-7-7-7-7-7-7-|-3-3-3-3-3-3-3-3-3-3-3-|
||------------------------|-----------------------|


  E S S E S S E S S E E   E S S E E S S E S S E
|-----------------------|--------------------------||
|-----------------------|-----------5-4---5-4-----o||
|-5-5-5-5-5-5-5-5-5-5-5-|-7-7-7-7-7-----7-----7---o||
|-----------------------|--------------------------||


   Riff C
    Q  +S  S S S Q  +S  S S S   E S S E S S E S S S S E
||---------------4--(4)-4-----|-------4-----------4-----|
||o----------4-5----------5-4-|---4-5---5-4---4-5---5-4-|
||o-7--(7)-7------------------|-7-----------7-----------|
||----------------------------|-------------------------|


  Q  +S  S S S Q  +S  S S S   E S S E S S E S S S S E
|--------------4--(4)-4-----|-------4-----------4------||
|----------4-5----------5-4-|---4-5---5-4---4-5---5-4-o||
|-3--(3)-3------------------|-3-----------3-----------o||
|---------------------------|--------------------------||


   Variation
    E S S E S S E S S E S S   E S S E S S E S S S E.
||--------------------------|------------------------|
||o-------------------------|------------------------|
||o-7-7-7-7-7-7-7-7-7-7-7-7-|-7-7-7-7-7-7-7-7-7-7-5--|
||--------------------------|------------------------|


  E S S E S S E S S E S S   E S S E S S E S S S E.
|-------------------------|-------------------------||
|-------------------------|------------------------o||
|-3-3-3-3-3-3-3-3-3-3-3-3-|-3-3-3-3-3-3-3-3-3-3-5--o||
|-------------------------|-------------------------||


   Verse
    E S S E S S E S S E E   E S S E S S E S S E E
||------------------------|-----------------------|
||o-----------------------|-----------------------|
||o-7-7-7-7-7-7-7-7-7-7-7-|-3-3-3-3-3-3-3-3-3-3-3-|
||------------------------|-----------------------|


  E S S E S S E S S E E   E S S E E S S E S S E    4x
|-----------------------|--------------------------||
|-----------------------|-----------5-4---5-4-----o||
|-5-5-5-5-5-5-5-5-5-5-5-|-7-7-7-7-7-----7-----7---o||
|-----------------------|--------------------------||


   Variation
    E S S E S S E S S E S S   E S S E S S E S S S E.
||--------------------------|------------------------|
||o-------------------------|------------------------|
||o-7-7-7-7-7-7-7-7-7-7-7-7-|-7-7-7-7-7-7-7-7-7-7-5--|
||--------------------------|------------------------|


  E S S E S S E S S E S S   E S S E S S E S S S E.
|-------------------------|-------------------------||
|-------------------------|------------------------o||
|-3-3-3-3-3-3-3-3-3-3-3-3-|-3-3-3-3-3-3-3-3-3-3-5--o||
|-------------------------|-------------------------||


 Bridge
  W          +H..       E   W          +H..       E
|----------|--------------|----------|--------------|
|----------|--------------|----------|--------------|
|-7--------|-(7)----------|-7--------|-(7)----------|
|----------|------------7-|----------|------------3-|


  W          +H..       E   W          +W
|----------|--------------|----------|--------|
|----------|--------------|----------|--------|
|-3--------|-(3)----------|-7--------|-(7)----|
|----------|------------7-|----------|--------|


   Fast Part
    S S S S S S S S S S S S E E   S S S S S S S S S S S S E E
||------------4-----------------|-----------4------------------||
||o---4-5-4-5---5-4-5-4---------|---4-5-4-5---5-4-5-4---------o||
||o-7-------------------7-5-3-5-|-7-------------------7-5-3-5-o||
||------------------------------|------------------------------||


   Rhythm for Solo
    Q=220
    Q  E E Q  E E   Q  E E Q  E E   Q  E E Q  Q    E E Q  E E Q
||----------------|---------------|--------------|----------------|
||o---------------|---------------|--------------|-5-4-0----------|
||o-7--7-7-7--7-7-|-7--7-7-7--7-7-|-7--7-7-7--7--|--------3-2-----|
||----------------|---------------|--------------|------------3---|


  Q  E E Q  E E   Q  E E Q  E E   Q  E E Q  Q    E E Q  E E Q   6x
|---------------|---------------|--------------|----------------||
|---------------|---------------|--------------|-5-4-0---------o||
|-5--5-5-5--5-5-|-5--5-5-5--5-5-|-5--5-5-5--5--|--------3-2----o||
|---------------|---------------|--------------|------------3---||


   Break
    Q  E E Q  E E   Q  E E Q  E E   Q  E E Q  E E
||----------------|---------------|---------------|
||o---------------|---------------|---------------|
||o-7--7-7-7--7-7-|-7--7-7-7--7-7-|-7--7-7-7--7-7-|
||----------------|---------------|---------------|


  Q  E E Q  Q    Q.   E Q.   E   Q.   E Q.   E  3x
|--------------|---------------|----------------||
|--------------|-5-------------|-5-------------o||
|-7--7-7-7--7--|------7-5----7-|------7-5----7-o||
|--------------|---------------|----------------||


  Q  E E Q  E E   Q  E E Q  E E   Q  E E Q  E E
|---------------|---------------|---------------|
|---------------|---------------|---------------|
|-7--7-7-7--7-7-|-7--7-7-7--7-7-|-7--7-7-7--7-7-|
|---------------|---------------|---------------|


  Q  E E Q  E E   Q  E E Q  E E   Q  E E Q  Q
|---------------|---------------|---------------|
|---------------|---------------|---------------|
|-7--7-7-7--7-7-|-7--7-7-7--7-7-|-7--7-7-7--7---|
|---------------|---------------|---------------|


   Verse
    Halftime Q=120
    E S S E S S E S S E E   E S S E S S E S S E E
||------------------------|-----------------------|
||o-----------------------|-----------------------|
||o-7-7-7-7-7-7-7-7-7-7-7-|-3-3-3-3-3-3-3-3-3-3-3-|
||------------------------|-----------------------|


  E S S E S S E S S E E   E S S E E S S E S S E
|-----------------------|--------------------------||
|-----------------------|-----------5-4---5-4-----o||
|-5-5-5-5-5-5-5-5-5-5-5-|-7-7-7-7-7-----7-----7---o||
|-----------------------|--------------------------||


    E S S E S S E S S E E   E S S E S S E S S E E
||------------------------|-----------------------|
||o-----------------------|-----------------------|
||o-7-7-7-7-7-7-7-7-7-7-7-|-3-3-3-3-3-3-3-3-3-3-3-|
||------------------------|-----------------------|


  E S S E S S E S S E E   E. E +S  E +S  S S S S S S S
|-----------------------|--------------------------------||
|-----------------------|-2--------------------5-4------o||
|-5-5-5-5-5-5-5-5-5-5-5-|----2-(2)-3-(3)-2-3-2-----7-5--o||
|-----------------------|--------------------------------||


    E S S E S S E S S E E   E S S E S S E S S E E
||------------------------|-----------------------|
||o-----------------------|-----------------------|
||o-7-7-7-7-7-7-7-7-7-7-7-|-3-3-3-3-3-3-3-3-3-3-3-|
||------------------------|-----------------------|


                         1.
  E S S E S S E S S E E   E S S E E S S E S S E
|-----------------------|--------------------------||
|-----------------------|-----------5-4---5-4-----o||
|-5-5-5-5-5-5-5-5-5-5-5-|-7-7-7-7-7-----7-----7---o||
|-----------------------|--------------------------||


 Outro
  2.
  W          +H..       E   W          +H..       E
|----------|--------------|----------|--------------|
|----------|--------------|----------|--------------|
|-7--------|-(7)----------|-5--------|-(5)----------|
|----------|------------5-|----------|------------3-|


  W          +H..       E   W          +H..       E
|----------|--------------|----------|--------------|
|----------|--------------|----------|--------------|
|-3--------|-(3)----------|-5--------|-(5)----------|
|----------|------------5-|----------|------------7-|


  Q=200
  TP
                                             |-3-|    |-3-|
  W          +H..       +E    +H..       E   E E E Q  E E E Q
|----------|----------------|--------------|----------------------*|
|----------|----------------|--------------|----------------------*|
|-7--------|-(7)--------(7)-|-(7)----------|-7-7-7-7--7-7-7-7\----*|
|----------|----------------|--------------|----------------------*|



Duration Legend
---------------
W - whole; H - half; Q - quarter; E - 8th; S - 16th; T - 32nd; X - 64th; a - acciaccatura
+ - note tied to previous; . - note dotted; .. - note double dotted
Uncapitalized letters represent notes that are staccato (1/2 duration)
Irregular groupings are notated above the duration line
Duration letters will always appear directly above the note/fret number it represents the
duration for.  Duration letters with no fret number below them represent rests.  Multi-
bar rests are notated in the form Wxn, where n is the number of bars to rest for.  Low
melody durations appear below the staff

Tablature Legend
----------------
 h   - hammer-on
 p   - pull-off
 b   - bend
 pb  - pre-bend
 r   - bend release (if no number after the r, then release immediately)
 /\  - slide into or out of (from/to "nowhere")
 s   - legato slide
 S   - shift slide
 - natural harmonic
[n]  - artificial harmonic
n(n) - tapped harmonic
 ~   - vibrato
 tr  - trill
 T   - tap
 TP  - trem. picking
 PM  - palm muting
\n/  - tremolo bar dip; n = amount to dip
 \n  - tremolo bar down
 n/  - tremolo bar up
/n\  - tremolo bar inverted dip
 =   - hold bend; also acts as connecting device for hammers/pulls
 <> - volume swell (louder/softer)
 x   - on rhythm slash represents muted slash
 o   - on rhythm slash represents single note slash

Misc Legend
-----------
 |  - bar
||  - double bar
||o - repeat start
o|| - repeat end
*|  - double bar (ending)
 :  - bar (freetime)
 $  - Segno
 &  - Coda
Tempo markers -  = BPM(8/16=s8/s16), where s8 = swing 8ths, s16 = swing 16ths
            

comments powered by Disqus
↑ Back to top | Iron Maiden Bass for Hallowed Be Thy Name. Lyrics for acoustic guitar and electric guitar. Tablatures and chords are parodies/interpretations of the original songs. You may use it for private study, scholarship, research or language learning purposes only