» » »

Flight Of Icarus Tabs (ver.1)

Artists:  A B C D E F G H I J K L M N O P Q R S T U V W X Y Z # 

Flight Of Icarus Tabs (ver.1)

Iron Maiden
Rating:
0/5 (0 votes)

Tabs too difficult? Try these video lessons and learn fast.
                PROPS GO TO: S. Froyn

#song. You may use this file only for private study, scholarship, or research. #

iron maiden - flight of icarus
+++++++++++++++++++++++++++++++

Solo

  1:54                         1:58
e|-----------------------------------------------------------------------------------------|
h|------------------------------------------------------14h15r14h15-17---------------------|
g|--4b---4-2------------------------------14r13-13h14h16-----------------------------------|
D|-----------4-3-2------------------14-16--------------------------------------------------|
A|-----------------4-2---------------------------------------------------------------------|
E|---------------------5-2-2---------------------------------------------------------------|


                                            2:01
e|-14h17r14--14h17r14--14h17r14--14h17r14---14b--14-16-17-19-21-19--21-19------------------|
h|-----------------------------------------------------------------------------------------|
g|-----------------------------------------------------------------------------------------|
D|-----------------------------------------------------------------------------------------|
A|-----------------------------------------------------------------------------------------|
E|-----------------------------------------------------------------------------------------|


   2:07                                    2:08
e|-17h19r17--17h19r17--17h19r17--17h19r17--16h17r16--16h17r16--16h17r16--16h17r16----------|
h|-----------------------------------------------------------------------------------------|
g|-----------------------------------------------------------------------------------------|
D|-----------------------------------------------------------------------------------------|
A|-----------------------------------------------------------------------------------------|
E|-----------------------------------------------------------------------------------------|



                                           2:09
e|-14h17r14--14h17r14--14h17r14--14h17r14--------------------------------------------------|
h|-----------------------------------------14h17r14--14h17r14--14h17r14--14h17r14----------|
g|-----------------------------------------------------------------------------------------|
D|-----------------------------------------------------------------------------------------|
A|-----------------------------------------------------------------------------------------|
E|-----------------------------------------------------------------------------------------|



                                         2:10
e|-----------------------------------------------------------------------------------------|
h|---------------------------------------14-----------------------------14---14h16b-14-----|
g|14h16r14--14h16r14--14h16r14--14h16r14----16-14-----------------------14---14h16b-14-----|
D|------------------------------------------------16--16-14--------14-16---16-----------16-|
A|---------------------------------------------------------16-14-16------------------------|
E|-----------------------------------------------------------------------------------------|



  2:12
e|-19-17----14--19-17--17-17r14h17r14h17---------------------------------------------------|
h|-------14-----------------------------14h17r14h17----------------------------------------|
g|--------------------------------------------------14h16r14h16---14h16r14h16--------------|
D|-------------------------------------------------------------16------------14h16r14h16---|
A|---------------------------------------------------------------------------------------14|
E|-----------------------------------------------------------------------------------------|

   2:20                  2:24                      2:26
e|-----------------------14-17-14------------------14h17r14--14----------------------------|
h|-------14---14---14------------17-14---------------------17--17-14-----------------------|
g|s11-11---11---11---11---------------17-16-14----------------------16-14------------------|
D|---------------------------------------------16------------------------16-14-------------|
A|----------------------------------------------------------------------------16-15-14-----|
E|------------------------------------------------------------------------------------17-14|


Outro

   3:02                                       3:10           
e|----------------------------------------------9--9---(-9-7------9--9--)x(3 times)--------|
h|-(-7--7---10-9-7---7--7)x(3 times)---10-9-7----------(-----10-7-------)------------------|
g|-(---------------9-----)--------------------9--------------------------------------------|
D|-----------------------------------------------------------------------------------------|
A|-----------------------------------------------------------------------------------------|
E|-----------------------------------------------------------------------------------------|

   3:19              3:24                                     3:27                     3:33
e|--9-9-9-9-9-9-9-9-7h9r7h9-----------------------------------9h12r9h12r9h12r9h12r9h12-9-14|
h|--------------------------7h10r7h10-----------------------7------------------------------|
g|------------------------------------7h9r7h9-------7h9r7h9--------------------------------|
D|-------------------------------------------7h9r7h9---------------------------------------|
A|-----------------------------------------------------------------------------------------|
E|-----------------------------------------------------------------------------------------|


Notation Legend:
h=hammer
r=release (pull off)
s=slide
b=bend
bs=bend and slide (duh!)
3:29= 3 minutes and 29 seconds into song (duh!)

Oslo
            
Tabs too difficult? Try these video lessons and learn fast.




comments powered by Disqus
↑ Back to top | Tablatures and chords are parodies/interpretations of the original songs. You may use it for private study, scholarship, research or language learning purposes only