» » »

Iron Maiden, Flight Of Icarus Bass tabs (ver.3)

Artists:  A B C D E F G H I J K L M N O P Q R S T U V W X Y Z # 

Flight Of Icarus Bass tabs (ver.3)

Iron Maiden Tabs
Rating:
0/5 (0 votes)
Flight Of Icarus lessons Tabs too difficult? Try these video lessons and learn fast
                THE OTHER TUB IS GOOD BUT ITS A BIT CONFUSING SO I DID IT AGAIN...

Tab explanations
-----------------------------------------------------------------------------
>   Accent               |  /   Slide up      |  w   whole note
.   Staccatto            |  \   Slide down    |  h   half note
h   Hammer-on/ pull off  |  :   Repeat        |  q   quarter    Harmonic
|  ~   slight bend   |  e   eigth note
[]  tied notes           |  +   dotted note   |  s   sixteenth note
-----------------------------------------------------------------------------


Flight of Icarus ( Smith/Dickinson )
 ( From the album "Piece of Mind" )

-->--->---------------------------------------------------------------------|
--7---2---------------------------------------------------------------------|
----------------------------------------------------------------------------|
----------2--2-2-2--2-2-2--2-2-2--2-2-2--2-2-2--2-2-2--2-2-2--2-2-2--2-2-2--|

----------------------------------------------------------------------------|
------------------------------------------------4--4-4-4--4-4---------------|
-----------------------------------.-.--------------------------------------|
-2-2-2--2-2-2--2-2-2--2-2-2--2-2---2-2--2-2-2-----------------2--2-2-2--2-2-|
                                                "As the Sun breaks..."

----------------------------------------------------------------------------|
----------------------------------------------------------------------------|
----------------------------------------------------------------------------|
-2-2-2--2-2-2--2-2-2--2-2-2--2-2-2--2-2-2--2-2-2--2-2-2--2-2-2--2-2-2--2-2--|


----------------------------------------------------------------------------|
----------------------------------------------------------------------------|
-.-.-->-->------------------------------------------.-.-->-->---------------|
-2-2--5--0--0-0-0--0-0-0--0-0-0--0-0-0--0-0-0--0-0--0-0--5--2--2-2-2--2-2-2-|

----------------------------------------------------------------------------|
------------------------------------4-----------------6----------------7----|
--------------------.-.-----------------------------------------------------|
-2-2-2--2-2-2--2-2--2-2--2-2-2---2------2--2-2-2---4------4--4-4-4--5-------|

--------------------.--.--------------------------------------9-------------|
---------------9---11-11--11-9-7-----4---------------------9----9-7\--------|
------------------------------------------------------7--7------------5-5-5-|
-5--5-5-5---7----------------------2-----2--2-2-2---0-----------------------|

----------------------------------------------------------14-----------------|
--------------------------------4-------------------9-11-----14\-------------|
-5-5-5-5--5-5-5-5--5-7-7-7\----------------------7-----------------5-5-5-5-5-|
------------------------------2-----2--2-2-2---0-----------------------------|

-----------------------------------------------------------------------------|
-----------------------------------------------------------------------------|
-5-5--5-5-5-5--5-7-7-7\------------------------------------------------------|
--------------------------2--2-2-2--2-2-2--2-2-2--2-2-2--2-2-2--2-2-2--2-2-2-|

----------------------------------------------------------------------------|
------------------------------------------------------------4---------------|
------------------------------------------------.-.-------------------------|
-2-2-2--2-2-2--2-2-2--2-2-2--2-2-2--2-2-2--2-2--2-2--2-2-2-----2-2-2--2-2-2-|

---------------------------------------------------------------------------|
---------------------------------------------------------------------------|
-----------------------------------------------------------------------.-.-|
-2-2-2--2-2-2--2-2-2--2-2-2-2--2-2-2--2-2-2--2-2-2-2--2-2-2--2-2-2--2--2-2-|

----------------------------------------------------------------------------|
----------------------------------------------------------------------------|
-->-->--------------------------------------------.-.-->-->-----------------|
--5--0--0-0-0--0-0-0-0--0-0-0--0-0-0--0-0-0--0-0--0-0--5--2--2-2-2--2-2-2---|

-------------------------------||-------------------------------------------|
-------------------------------||.----4-----------------6----------------7--|
--------------------.-.--------||.------------------------------------------|
-2-2-2--2-2-2--2-2--2-2--2-2-2-||--2------2--2-2-2---4------4--4-4-4--5-----|

------------------.--.-----------||-----------------------------9-----------|
-------------9---11-11--11-9-7--.||----4---------------------9----9-7\------|
--------------------------------.||---------------------7--7------------5-5-|
-5--5-5-5--7---------------------||--2-----2--2-2-2---0---------------------|

----------------------------------------------------------14----------------|
--------------------------------4-------------------9-11-----14\------------|
-5-5-5-5--5-5-5-5--5-7-7-7\----------------------7-----------------5-5-5--5-|
------------------------------2-----2--2-2-2---0----------------------------|

----------------------------------------------------------------------------|
----------------------------------------------------------------------------|
-5-5--5-5-5-5--5-9-7-7\---------------------------------------.-.-->->------|
--------------------------2--2-2-2--2-2-2--2-2-2--2-2-2--2-2--2-2--5-0--2---|

Guitar Solo

-----------------------------------------------------------------------------|
-----------------------------------------------------------------------------|
--------------------------------.-.-->->-------------------------------------|
-2-2--2-2-2--2-2-2--2-2-2--2-2--2-2--5-0--0--0-0-0--0-0-0--0-0-0--0-0-0--0-0-|


----------------------------------------------------------||----------------|
----------------------------------------------------------||.----4----------|
-.-.-->->--------------------------------------.-.--------||.---------------|
-0-0--5-0--2--2-2-2--2-2-2--2-2-2--2-2-2--2-2--2-2--2-2-2-||--2------2--2-2-|

------------------------------------------.--.-----------||-----------------|
---6----------------7----------------9---11-11--11-9-7--.||.-----4----------|
--------------------------------------------------------.||.----------------|
-4-----4--4-4-4--5------5--5-5-5--7----------------------||----2-----2--2-2-|
END OF SOLO...


-----------9-----------------------------------------------------------------|
--------9----9-7\-----------------------------------------4------------------|
---7--7------------5-5-5---5-5-5-5--5-5-5-5--5-7-7-7\------------------------|
-0------------------------------------------------------2-----2--2-2-2---0---|

-------14-------------------------------------------||----------------------|
---11-----14\--------------------------------------.||------4---------------|
-9--------------5-5-5--5-5--5-5--5-5-5-5--5-7-7-7\-.||----------------------|
----------------------------------------------------||----2-----2--2-2-2--0-|

-------14-------------------------------------------------------------------|
---11-----14\--------------------------------------------------4------------|
-9--------------5-5-5--5-5--5-5--5-5-5-5--5-7-7-7\---9-9\-------------------|
-------------------------------------------------------------2-----2--2-2-2-|


                                             .
--------------------------------------------11--11\-------------------------|
---6----------------7----------------9---11--------------4----------------6-|
----------------------------------------------------------------------------|
-4-----4--4-4-4--5------5--5-5-5--7--------------------2-----2--2-2-2--4----|


------------------------------------.--.------------------------------------|
--------------7----------------9---11-11--11-9-7------4-4-4-----4-4--4-4----|
----------------------------------------------------------------------------|
-4--4-4-4--5------5--5-5-5--7----------------------2---------2------------2-|

-------------------------------------------------------------------------.--|
-----6-6-6-----6-6--6-6---------7-7-7-----7-7--7-7---------9-9-9-----11-11--|
----------------------------------------------------------------------------|
--4---------4------------4---5---------5------------5---7---------7---------|

----------------------------------------------------------------------------|
-11-11-9-7\------4-4-4-----4-4--4-4--------6-6-6-----6-6--6-6---------7-7-7-|
----------------------------------------------------------------------------|
--------------2---------2------------2--4---------4------------4---5--------|

----------------------------------------------------------------------------|
----7-7-7-7-7-7-6-4\--------------------------------------------------------|
--------------------------------------11-11-11-11-11-9-----11-9----11-9-----|
-5----------------------2--------2---------------------11-------11------11--|
                                       out of time


---------------------------------------------------------------------------|
--------------------------------------------------------------5--2--4\-----|
---------------------------------------------------------------------------|
-9-7-5-4-2--2-2-2-2-2-2-2-2-2-2-2-2-2-2-2-2-2-2-2-2-2-2-2-2----------------|

THATS IT, ENJOY
            

comments powered by Disqus
↑ Back to top | Iron Maiden Bass for Flight Of Icarus. Lyrics for acoustic guitar and electric guitar. Tablatures and chords are parodies/interpretations of the original songs. You may use it for private study, scholarship, research or language learning purposes only