>
 >
Flight Of Icarus

Flight Of Icarus Bass Tabs

Iron Maiden - Flight Of Icarus chords, tabs, tablatures, lyrics

Guitar lessons | Add/correct | Request | Top 50 tabs Artists:  A B C D E F G H I J K L M N O P Q R S T U V W X Y Z 0-9

Flight Of Icarus Bass Tabs – Iron Maiden

CD, Sheet music, Poster

Do you like Flight Of Icarus? Share with your friends now
Bass TabsBass Tabs v2Bass Tabs v3ChordsDrum TabsTabsTabs v2Tabs v3Tabs v4Ukulele
IRON MAIDEN
Flight of Icarus



                                                     
G||----------2---------|----------------------------|
D||---------------2----|----------------------------|
A||--------------------|----------------------------|
E||--------------------|--2--2-2-2--2--2--2-2-2--2--|


                                                          
----------------------------|----------------------------|
----------------------------|----------------------------|
----------------------------|----------------------------|
--2--2-2-2--2--2--2-2-2--2--|--2--2-2-2--2--2--2-2-2--2--|


                                                            
-----------------------------|-----------------------------|
-----------------------------|-----------------------------|
-----------------------------|-----------------------------|
--2--2-2-2--2-2-2--2--2-2-2--|--2--2-2-2--2--2-2-2-2-2--2--|


                                                           
-----------------------------|----------------------------|
-----------------------------|----------------------------|
-----------------------------|----------------------------|
--2--2-2-2--2--2-2-2-2-2--2--|--2--2-2-2--2--2--2-2-2--2--|


                                                        
--------------------------|----------------------------|
--------------------------|----------------------------|
---------------------0----|----------------------------|
--2--2-2-2--2--2--2-------|--0--0-0-0--0--0--0-0-0--0--|


                                                            
-----------------------------|-----------------------------|
-----------------------------|-----------------------------|
-----------------------------|-----------------------------|
--0--0-0-0--0--0-0-0-0-0--0--|--2--2-2-2--2-2-2--2-2-2--2--|


                                                                            
----------------------------|----------------------|-----------------------|
----------------------------|-------4--------------|-------6---------------|
----------------------------|----------------------|-----------------------|
--2--2-2-2--2--2--2--2-2-2--|--2-----------2---2---|--4-----------4---4-4--|


                                                                         
----------------------|----------7-6--6-6-6-6----|----------------------|
-------7--------------|-------9------------------|-------4--------------|
----------------------|--------------------------|----------------------|
--5-----------5---5---|--7-----------------------|--2-----------2---2---|


                                                        
-----------------9-------|-----------------------------|
--------------9-------9--|-----------------------------|
---------7---------------|----5-4-5--5-4-5-4-5--4-5-4--|
--0--0-0-----------------|-----------------------------|


                                                  
--------------------------|----------------------|
--------------------------|-------4--------------|
--5--5-4-5-4-7----7--7/---|----------------------|
--------------------------|--2-----------2---4---|


                                                                
-----------------------14p13-----|-----------------------------|
-------------------14--------14--|-----------------------------|
---------------14----------------|----5-4-5--5-4-5-4-5---5-5-4-|
--0--0-0-12----------------------|-----------------------------|


                                                        
------------------------|------------------------------|
------------------------|------------------------------|
--5----5-4-7----7--7/---|------------------------------|
------------------------|--2--2-2-2--2-2-2--2-2-2--2-2-|


                                                              
------------------------------|------------------------------|
------------------------------|------------------------------|
------------------------------|------------------------------|
--2--2-2-2--2-2-2--2-2-2--2-2-|--2--2-2-2--2-2-2--2-2-2--2-2-|


                                                          
---------------------------|-----------------------------|
---------------------------|-----------------------------|
---------------------------|-----------------------------|
--2--2-2-2--2-2-2--2--2----|--2--2-2-2--2--2-2-2-2-2--2--|


                                                           
-----------------------------|----------------------------|
-----------------------------|----------------------------|
-----------------------------|----------------------------|
--2--2-2-2--2--2-2-2-2-2--2--|--2--2-2-2--2--2--2-2-2--2--|


                                                        
--------------------------|----------------------------|
--------------------------|----------------------------|
---------------------0----|----------------------------|
--2--2-2-2--2--2--2-------|--0--0-0-0--0--0--0-0-0--0--|


                                                            
-----------------------------|-----------------------------|
-----------------------------|-----------------------------|
-----------------------------|-----------------------------|
--0--0-0-0--0--0-0-0-0-0--0--|--2--2-2-2--2-2-2--2-2-2--2--|


                                                                            
----------------------------|----------------------|-----------------------|
----------------------------|-------4--------------|-------6---------------|
----------------------------|----------------------|-----------------------|
--2--2-2-2--2--2--2--2-2-2--|--2-----------2---2---|--4-----------4---4-4--|


                                                                             
----------------------|------------------------------|----------------------|
-------7--------------|-------9--0-11---11--11-9-----|-------4--------------|
----------------------|--------------------------12/-|----------------------|
--5-----------5---5---|--7---------------------------|--2-----------2---2---|


                                                                         
----------------------|----------------------|--------------------------|
-------6--------------|-------7--------------|-------9----11--11--11----|
----------------------|----------------------|--------------------------|
--4-----------4---4---|--5-----------5---5---|--7-----------------------|


                                                                               
----------------------|-----------------9-------|-----------------------------|
-------4--------------|--------------9-------9--|-----------------------------|
----------------------|---------7---------------|----5-4-5--5-4-5-4-5--4-5-4--|
--2-----------2---2---|--0--0-0-----------------|-----------------------------|


                                                  
--------------------------|----------------------|
--------------------------|-------4--------------|
--5--5-4-5-4-7----7--7/---|----------------------|
--------------------------|--2-----------2---4---|


                                                                
-----------------------14p13-----|-----------------------------|
-------------------14--------14--|-----------------------------|
---------------14----------------|----5-4-5--5-4-5-4-5---5-5-4-|
--0--0-0-12----------------------|-----------------------------|


                                                        
------------------------|------------------------------|
------------------------|------------------------------|
--5----5-4-7----7--7/---|------------------------------|
------------------------|--0--0-0-0--0-0-0--0-0-0--0-0-|


                                                          
--------------------------|------------------------------|
--------------------------|------------------------------|
----------------0---------|------------------------------|
--0--0-0-0--0-0------0----|--2--2-2-2--2-2-2--2-2-2--2-2-|


                                                          
--------------------------|------------------------------|
--------------------------|------------------------------|
----------------0---------|------------------------------|
--2--2-2-2--2-2------0----|--0--0-0-0--0-0-0--0-0-0--0-0-|


                                                          
--------------------------|------------------------------|
--------------------------|------------------------------|
----------------0---------|------------------------------|
--0--0-0-0--0-0------0----|--2--2-2-2--2-2-2--2-2-2--2-2-|


                                                                          
---------------------------|----------------------|----------------------|
---------------------------|-------4--------------|-------6--------------|
---------------------------|----------------------|----------------------|
--2--2-2--2-2--2--2-2-2----|--2-----------2---2---|--4-----------4---4---|


                                                                         
----------------------|----------7-6--6-6-6-6----|----------------------|
-------7--------------|-------9------------------|-------4--------------|
----------------------|--------------------------|----------------------|
--5-----------5---5---|--7-----------------------|--2-----------2---2---|


                                                                         
----------------------|----------------------|----------7-6--6-6-6-6----|
-------6--------------|-------7--------------|-------9------------------|
----------------------|----------------------|--------------------------|
--4-----------4---4---|--5-----------5---5---|--7-----------------------|


                                                                               
----------------------|-----------------9-------|-----------------------------|
-------4--------------|--------------9-------9--|-----------------------------|
----------------------|---------7---------------|----5-4-5--5-4-5-4-5--4-5-4--|
--2-----------2---2---|--0--0-0-----------------|-----------------------------|


                                                  
--------------------------|----------------------|
--------------------------|-------4--------------|
--5--5-4-5-4-7----7--7/---|----------------------|
--------------------------|--2-----------2---4---|


                                                                
-----------------------14p13-----|-----------------------------|
-------------------14--------14--|-----------------------------|
---------------14----------------|----5-4-5--5-4-5-4-5---5-5-4-|
--0--0-0-12----------------------|-----------------------------|


                                                                          
------------------------|----------------------|-----------------9-------|
------------------------|-------4--------------|--------------9-------9--|
--5----5-4-7----7--7/---|----------------------|---------7---------------|
------------------------|--2-----------2---2---|--0--0-0-----------------|


                                                                                
-----------------------------|--------------------------|----------------------|
-----------------------------|--------------------------|-------4--------------|
----5-4-5--5-4-5-4-5--4-5-4--|--5--5-4-5-4-7----7--7/---|----------------------|
-----------------------------|--------------------------|--2-----------2---4---|


                                                                
-----------------------14p13-----|-----------------------------|
-------------------14--------14--|-----------------------------|
---------------14----------------|----5-4-5--5-4-5-4-5---5-5-4-|
--0--0-0-12----------------------|-----------------------------|


                                                                           
------------------------|------------------------|------------------------|
------------------------|---------4--------------|---------6--------------|
--5----5-4-7----7--7/---|------------------------|------------------------|
------------------------|--2--2-2--------2---2---|--4--4-4--------4---4---|


                                                                             
------------------------|--------------------------|------------------------|
---------7--------------|-------9----11------------|---------4--------------|
------------------------|----------------11---11---|------------------------|
--5--5-5--------5---5---|--7-----------------------|--2--2-2--------2---2---|


                                                                             
------------------------|------------------------|--------------------------|
---------6--------------|---------7--------------|-------9----11------------|
------------------------|------------------------|----------------11--11----|
--4--4-4--------4---4---|--5--5-5--------5---5---|--7-----------------------|


                                                           
----------------------------|-----------------------------|
--4--4-4-4-----4-4--4-4-----|-----6-6-6------6-6--6-6-----|
----------------------------|-----------------------------|
------------2------------2--|--4---------4-4-----------4--|


                                                             
----------------------------|-------------------------------|
-----7-7-7-----7-7--7-7-----|-----9-9-9-----11-11--11-11/---|
----------------------------|-------------------------------|
--5---------5------------5--|--7---------7------------------|


                                                          
----------------------------|----------------------------|
--4--4-4-4-----4-4--4-4-----|-----6-6-6-----6-6--6-6-----|
----------------------------|----------------------------|
------------2------------2--|--4---------4------------4--|


                                                                      
------------------------------|-------------------|------------------|
-----7-7-7-----7-7-7-7-7-7----|-------------------|------------------|
---------------------------7--|-------------------|------------------|
--5---------5-----------------|--7----------------|------------------|


                                                                   
-------------------------------------|------------------2---------|
-------4-4-4-4-4-2---4-2---4-2-------|-----------------------2----|
-------------------4-----4-----4-----|----------------------------|
--2------------------------------2-2-|--2-2-2-2-2-2-2-2-----------|


                     
-------------------||
-------------------||
-------------------||
--2----------------||





Comments


Popular Iron Maiden tabs & chords
Age Of Innocence Bass Tabs
Bring Your Daughter To The Slaughter 1 Bass Tabs
Face In The Sand Bass Tabs
Hallowed Be Thy Name Bass Tabs
Hallowed Be Thy Name 2 Bass Tabs
The Number Of The Beast Bass Tabs
The Wickerman Bass Tabs
Back In The Village 2 Tabs
Children Of The Damned Tabs
Futureal (Solo) Tabs


Song lyrics



↑ Back to top | Tablatures and chords are parodies/interpretations of the original songs. You may use it for private study, scholarship, research or language learning purposes only
© 2014 AZChords.com Contact us | Privacy policy | DMCA | Add/correct tabs | Request tabs | Top 50 tabs