>
 >
El Dorado 2

El Dorado 2 Guitar Tabs

Iron Maiden - El Dorado 2 chords, tabs, tablatures, lyrics

Guitar lessons | Add/correct | Request | Top 50 tabs Artists:  A B C D E F G H I J K L M N O P Q R S T U V W X Y Z 0-9

El Dorado 2 Guitar Tabs – Iron Maiden

CD, Sheet music, Poster

Do you like El Dorado 2? Share with your friends now
Bass TabsTabsTabs v2Tabs v3Tabs v4
Well...It's a part of the song, and i know the tab is not complete.
Enjoy!

Intro

|------------------------------|
|------------------------------|
|------------------------------|
|------------------------------|
|--2---2-2-2-2-2-2-2-2---------|
|--0---0-0-0-0-0-0-0-0---------|


Main Riff...

|------------------------------|
|------------------------------|
|------------------------------|
|------------------------------|
|--2---5---5---7---------------|
|--0---3---3---5---------------|

|----------------------------|
|----------------------------|
|----------------------------|
|------------7---------------|
|--2---5-----5--7------------|
|--0---3--------5------------|

|--------------|
|--------------|
|--------------|
|--7-----------|
|--5-7--5--7---|
|----5--3--5---|

Verse

|------------------------------|
|------------------------------|
|------------------------------|
|------------------------------|
|--2---5---5---7---------------|
|--0---3---3---5-555--555-555--|
                **************


|------------------------------------|
|------------------------------------|
|------------------------------------|
|-----------7------------------------|
|--2---5----5--7---------------------|
|--0---3-------5--555--555-555-------|
                     ************

|--------------|
|--------------|
|--------------|
|--7-----------|
|--5-7--5--7---|
|----5--3--5---|


Chorus

|------------------------------|
|------------------------------|
|------------------------------|
|------------------5-----------|
|--4-6-7--4-6-7-------7--------|
|------------------------------|

|------------------------------|
|------------------------------|
|------------------------------|
|------------------5--6--------|
|-4-6-7--4-6-7-----------------|
|------------------------------| x2


|------------------------------|
|------------------------------|
|------------------------------|
|-------------3----------------|
|-5-----------1---------3------|
|-3---------------------1------|

|------------------------------|
|------------------------------|
|------------------------------|
|-5------5--7----8---------5---|
|-3------3--5----6---8-----3---|
|--------------------6---------|


----


* ->palm mute





Comments


Popular Iron Maiden tabs & chords
Hooks In You Bass Tabs
The Number Of The Beast 2 Bass Tabs
Another Life Drum Tabs
Be Quck Or Be Dead Tabs
Caught Somewhere In Time 1 Tabs
Die With Your Boots On Tabs
Invaders Tabs
Judgement Of Heaven Tabs
Moonchild 2 Tabs
Seventh Son Of A Seventh Son Tabs


Song lyrics



↑ Back to top | Tablatures and chords are parodies/interpretations of the original songs. You may use it for private study, scholarship, research or language learning purposes only
© 2014 AZChords.com Contact us | Privacy policy | DMCA | Add/correct tabs | Request tabs | Top 50 tabs