» » »

El Dorado Tabs (ver.1)

Artists:  A B C D E F G H I J K L M N O P Q R S T U V W X Y Z # 

El Dorado Tabs (ver.1)

Iron Maiden
Rating:
0/5 (0 votes)

Hard to play? Try these video lessons and learn fast.
                Of course, it's not the whole song, and it's not 100% right, since the song is just released. 
I just tabbed the main riffs so you can play along with the song.
I will add the other riffs and the solo as soon as I can.
Enjoy!


RIFF 1

Gtr1
e|----------------|---------------------|----------------|--------------------------|
B|----------------|---------------------|----------------|--------------------------|
G|----------------|-----------7---------|----------------|-----------7-----7-6------|
D|-2---2--5--5-7\-|-2---2--5--7-5---5-7-|-2---2--5--5-7\-|-2---2--5--7-5---7-6--5-4-|
A|-2---2--5--5-7\-|-2---2--5--5-5---5-7-|-2---2--5--5-7\-|-2---2--5--5-5---5-4--5-4-|
E|-0---0--3--3-5\-|-0---0--3----3---3-5-|-0---0--3--3-5\-|-0---0--3----3--------3-2-|

Gtr 2
e|-----|-----------------------------|
B|-----|-----------------------------|
G|-----|-----------------------------|
D|-----|-----------------------------|
A|-----|-----------------------------|
E|-12\-|-0--0-0-0--0-0-0--0-0-0--0-0-|
         \_______repeat_____________/



RIFF 2

Gtr1
e|-------------------|-------------------|-------------------|--------------------------|
B|-------------------|-------------------|-------------------|--------------------------|
G|-------------------|-----------7-------|-------------------|-----------7-----7-6------|
D|-2---2--5--5-7---5-|-2---2--5--7-5---5-|-2---2--5--5-7---5-|-2---2--5--7-5---7-6--5-4-|
A|-2---2--5--5-7---5-|-2---2--5--5-5---5-|-2---2--5--5-7---5-|-2---2--5--5-5---5-4--5-4-|
E|-0---0--3--3-5---3-|-0---0--3----3---3-|-0---0--3--3-5---3-|-0---0--3----3--------3-2-|
   I gotta tell you a story...

Gtr 2
e|-----------------------------|
B|-----------------------------|
G|-----------------------------|
D|-----------------------------|
A|-----------------------------|
E|-0--0-0-0--0-0-0--0-0-0--0-0-| repeat



RIFF 3

Gtr1
e|----------------------|----------------------|
B|----------------------|----------------------|
G|----------------------|----------------------|
D|----------------5-----|----------------5--6--|
A|-4--6-7--4--6-7----7--|-4--6-7--4--6-7-------|
E|----------------------|----------------------|
  ...I'm the jester with no tears...

Gtr 2
Silent


RIFF 4

Gtr1
e|-------------------|----------|
B|-----------------3-|-4--------|
G|-----3-------5---2-|-3--3--5--|
D|-5---3---3---5---0-|-1--3--5--|
A|-5---1---3---3-----|----1--3--|
E|-3-------1---------|----------|
 ...El Dorado...

Gtr2
Silent


RIFF 5

Gtr1
e|---------------------|---------------------|
B|---------------------|---------------------|
G|-14--12-14-15-12-14--|-15-14-12-14-----12--|
D|-14--12-14-15-12-14--|-15-14-12-14--14-12--|
A|-12--10-12-13-10-12--|-13-12-10-12--14-10--|
E|---------------------|--------------12-----|

Gtr2
e|-----------------------------|
B|-----------------------------|
G|-----------------------------|
D|-----------------------------|
A|-0--0-0-0--0-0-0--0-0-0--0-0-|
E|-----------------------------| repeat


Gtr1
e|------------------------------|---------------------|
B|------------------------------|---------------------|
G|-14--12-14-15-12-14--17-15-14-|-15-14-12-14-----12--|
D|-14--12-14-15-12-14--17-15-14-|-15-14-12-14--14-12--|
A|-12--10-12-13-10-12--15-13-12-|-13-12-10-12--14-10--|
E|------------------------------|--------------12-----|

Gtr2
e|-----------------------------|
B|-----------------------------|
G|-----------------------------|
D|-----------------------------|
A|-0--0-0-0--0-0-0--0-0-0--0-0-|
E|-----------------------------| repeat



INTRO (not tabbed yet)
RIFF 1
RIFF 2 (3x)
RIFF 3 (2x)
RIFF 2 (3x) (3rd time gtr3 plays some fills, coming soon)
RIFF 3 (2x)
RIFF 4 (2x)
RIFF 5
RIFF 6 (coming soon)
SOLO (coming soon)
???
OUTRO
            
Hard to play? Try these video lessons and learn fast. | Correct




comments powered by Disqus
↑ Back to top | Tablatures and chords are parodies/interpretations of the original songs. You may use it for private study, scholarship, research or language learning purposes only