» » »

Iron Maiden, El Dorado Tabs (ver.2)

Artists:  A B C D E F G H I J K L M N O P Q R S T U V W X Y Z # 

El Dorado Tabs (ver.2)

Iron Maiden Tabs
 Rating:
4/5 (4 votes)
El Dorado lessons Tabs too difficult? Try these video lessons and learn fast
1
                Tuning EADGBE

The intro is just a slide down the neck and then hit the Em chord
with a wasted years type lead.

-----------------------------------------------------------------|
-----------------------------------------------------------------|
-----------------------------------------------------------------|
-----------------------------------------------------------------|
-----------------------------------------------------------------|
--0-0-0-0---Gallop-with the Bass---------------------------------|


-----------------------------------------------------------------|
-----------------------------------------------------------------|
-----------------------------------------------------------------|
--2----------------2------7--------------------------------------|
--2--5---5-7-------2--5---5---5-------5-7---2--5----5--7---------|
--0--3-0-3-5-------0--3-0-----3-------3-5---0--3-0--3--5---------|

-----------------------------------------------------------------|
-----------------------------------------------------------------|
-----------------------------------------------------------------|
----------7---------7-6------------------------------------------|
-2--5-----5---5-----5-4---5-4------------------------------------|
-0--3--0------3-----------3-2------------------------------------|

Fill for the 2nd verse
-----------------------------------------------------------------|
-----------------------------------------------------------------|
-----------------------------------------------------------------|
---9-9-9--7-5-4-5-----10-10-10-9-7-5-----------------------------|
-----------------------------------------------------------------|
-----------------------------------------------------------------|

Do the Above for the Verse but with a gallop on the low E string
During each bar.

(One or two guitars play this while the third does the
one below this.
-----------------------------------------------------------------|
-----------------------------------------------------------------|
--------------------------Gallop feel----------------------------|
-----------------------6-----------------------------------------|
-----------------------4-----------------------------------------|
-----------------------------------------------------------------|

The third guitar plays this over the above
-----------------------------------------------------------------|
-----------------------------------------------------------------|
--6--8--9----6--8--9----12--9----6--8--9---6--8--9----12--13-----|
--x--x--x----x--x--x-------------x--x--x---x--x--x---------------|
--4--6--7----4--6--7----10--7----4--6--7---4--6--7----10--11-----|
-----------------------------------------------------------------|

Chorus
-----------------------------------------------------------------|
-----------------------------------------------------------------|
-----------------------------------------------------------------|
--5---8----3----5---7-8----3---5---------------------------------|
--5---8----3----3---5-6----1---3---------------------------------|
--3---6----1-----------------------------------------------------|


Break
-----------------------------------------------------------------|
-----------------------------------------------------------------|
-----------------------------------------------------------------|
-14--12--14--15---12-14-----15-14-12-14---9---12-----------------|
-12--10--12--13---10-12-----13-12-10-12---7---10-----------------|
------------------------------------------0----------------------|

-----------------------------------------------------------------|
-----------------------------------------------------------------|
-----------------------------------------------------------------|
-14--12--14--15---12-14-----17-15-14---15-14-12--14--9--12-------|
-12--10--12--13---10-12-----15-13-12---13-12-10--12--7--10-------|
-----------------------------------------------------0-----------|


-----------------------------------------------------------------|
-----------------------------------------------------------------|
-----------------------------------------------------------------|
-----------------------------------------------------------------|
-----------------------------------------------------------------|
-0-0-0-0-0-0-0-0--5-7-8--5-7-0-0-0-0-0-0--5-7-5--8-7-5-----------|

-----------------------------------------------------------------|
-----------------------------------------------------------------|
-----------------------------------------------------------------|
-----------------------------------------------------------------|
-----------------------------------------------------------------|
-0-0-0-0-0-0-0--5-7-8-5-7---10-8-7--0-0-0-0-0--5-7-5--8-7-5------|


Chords for Adrian's solo are the first part in the break

Chords for Dave's solo
-----------------------------------------------------------------|
-----------------------------------------------------------------|
-----------------------------------------------------------------|
--9--7--9-10--7--9---12-10-9---10-9-7--9---4--7------------------|
--7--5--7--8--5--7---10-8--7---8--7-5--7---2--5------------------|
-----------------------------------------------------------------|

Chords for Jsnick's solo
-----------------------------------------------------------------|
-----------------------------------------------------------------|
-----------------------------------------------------------------|
-------------------------------------------2---------------------|
--9-7-9-10-7-9-----10-9-7--9-----4-7-------2---------------------|
--7-5-7-8--5-7-----8--7-5--7-----2-5-------0---------------------|

And then repeat the verse, interlude and chorus. (Done)
            
Submit corrections

comments powered by Disqus
↑ Back to top | Iron Maiden Tabs for El Dorado. Lyrics for acoustic guitar and electric guitar. 1 Tablatures and chords are parodies/interpretations of the original songs. You may use it for private study, scholarship, research or language learning purposes only