>
 >
Pallar Anders Visa Intro

Pallar Anders Visa Intro Guitar Tabs

In Flames - Pallar Anders Visa Intro chords, tabs, tablatures, lyrics

Guitar lessons | Add/correct | Request | Top 50 tabs Artists:  A B C D E F G H I J K L M N O P Q R S T U V W X Y Z 0-9

Pallar Anders Visa Intro Guitar Tabs – In Flames

CD, Sheet music, Poster

Do you like Pallar Anders Visa Intro? Share with your friends now
TabsTabs v2
Intro
C#|------0-------|--------0-------|--------0-------|0----------------|
G#|--------1-----|----------1-----|----------1-----|1----------------|
E |----2-----2---|----2-------2---|------2-----2---|2----------------|
B |--2---------2-|--2---2-------2-|----2---------2-|2----------------|
F#|0-------------|0---------------|0---------------|0----------------|
C#|--------------|----------------|----------------|-----------------|
 
Rythym (Once Through)                                                    
|--------0-------|--------0-------|--------------|------0------------|
|----------1-----|----------1-----|------0-------|--------1----------|
|------2-----2---|------2-----2---|----1---1-----|----2-----2--------|
|----2---------2-|----2---------2-|--2-------2---|--2---------2------|
|0---------------|0---------------|--------------|0-------------0----|
|----------------|----------------|0-----------0-|-------------------|

|------0---------|-----0h1-------|--------------|0-------------------|
|--------1-------|---3-----3-----|------0-------|--0---3-----0------|
|----2-----2-----|-----------2---|----1---1-----|---------1----------|
|--2---------2---|0------------0-|--2-------2---|-----2-----2----2---|
|0-------------0-|---------------|--------------|--------------------|
|----------------|---------------|0-----------0-|--------------------|

|------0---------|------0------|---------------|---------------------|
|--------1-------|--------1----|------1--------|---------------------|
|----2-----2-----|----------2--|----2---2------|------0--------------|
|--2---------2---|----2-------2|--2-------2----|----2----------------|
|0-------------0-|--2----------|0-----------0--|--2------------------|
|----------------|0------------|---------------|0--------------------|

|--------------------------------------------------------------------|
|--------------------------------------------------------------------|
|-----2--------------------------------1-----------------------------|
|---2-------0--------0-------3-------2---2---------------------------|
|0--------2--2----0---0---3---3---2---------0-----------------------|
|-------3--------2-------1-------0---------0-------------------------|

|------0---------|---------------------------------------0-----------|
|--------1-------|-------------------------------------1---1---------|
|----2-----2-----|--------2-------------------0-------2-----2--------|
|--2---------2---|------3--3---------0--------------2-------2-------|
|0---------------|----3-------3-----2---2---3---3--0----------0------|
|----------------|0h1-----------1h3-------1--------------------------|


|------0---------|-----0h1-------|--------------|--------------------|
|--------1-------|---3-----3-----|------0-------|------0-------------|
|----2-----2-----|-----------2---|----1---1-----|----1---1-----------|
|--2---------2---|0------------0-|--2-------2---|--2-------2---------|
|0-------------0-|---------------|--------------|--------------------|
|----------------|---------------|0-----------0-|0-----------0-------|

|------0---------|--------------|--------0-------|-------------------|
|--------1-------|------0-------|----------1-----|--------0----------|
|----2-----2-----|--------0-----|-----2------2---|----------0--------|
|--2---------2---|----2-----2---|---2----------2-|------2-----2------|
|0-------------0-|--2-----------|-0--------------|----2---------2----|
|----------------|0-----------0-|----------------|-0-----------------|

|--------------------------------------------------------------------|
|------------------------------------------------------1-------------|
|-----2----------------------------------1-----------2---2-----------|
|---2---2-----0--------0-------0-------2---2-------2-------2---------|
|0----------2--2----0---0---0---0---2-------2---0-----------0-0-----|
|---------3--------2-------1-------0-----------0---------------------|

Lead (After Intro)
C#|-----------------|----------------|----------------|--------------|
G#|o----------------|----------------|----------------|--------------|
E |----7--7h9-9-----|----------------|----------------|--------7-----|
B |-10---------10-7-|-7-9-10-10--7-10|-9-7h9p7-6---6-9|-7----10------|
F#|o----------------|----------------|-----------7----|--------------|
C#|-----------------|----------------|----------------|--------------|

|----------------|----------------|----------------|-----------------|
|----------------|----------------|----------------|-----------------|
|7h99-9h10-7-9--|10-10--7-----7--|---------7----7-|-10-9-------9-7--|
|----------------|----------------|10----10---10---|-----------------|
|----------------|----------------|----------------|-----------------|
|----------------|----------------|----------------|-----------------|

|----------------|----------------|----------------|-----------------|
|----------------|----------------|----------------|-----------------|
|9------9--------|--------7---9---|----------------|-----------------|
|---------10---10|9---10----------|10------7-7h9p7-|-----------------|
|----------------|----------------|----------------|10------7--------|
|----------------|----------------|----------------|-----------------|
   
|----------------|----------------|----------------|-----------------|
|----------------|----------------|----------------|----------------o|
|--------------9-|7-7h9p7---------|----------------|--------------7--|
|--7--9-10-9-10--|--------10--7---|9-7h9p7-6---6-9-|7-----------10---|
|----------------|----------------|----------7-----|----------------o|
|----------------|----------------|----------------|-----------------|





Comments


Popular In Flames tabs & chords
Evil In A Closet 2 Bass Tabs
Behind Space Tabs
Clayman Tabs
Cloud Connected 3 Tabs
Come Clarity 6 Tabs
Dead Eternity Tabs
Disconnected 1 Tabs
Eye Of The Beholder Tabs
Man Made God 1 Tabs
Trigger Tabs


Song lyrics



↑ Back to top | Tablatures and chords are parodies/interpretations of the original songs. You may use it for private study, scholarship, research or language learning purposes only
© 2014 AZChords.com Contact us | Privacy policy | DMCA | Add/correct tabs | Request tabs | Top 50 tabs