» » »

In Flames, Pallar Anders Visa Tabs (ver.1)

Artists:  A B C D E F G H I J K L M N O P Q R S T U V W X Y Z # 

Pallar Anders Visa Tabs (ver.1)

In Flames Tabs
Rating:
0/5 (0 votes)
Pallar Anders Visa lessons Tabs too difficult? Try these video lessons and learn fast
                Intro/played behind verse
GTR 2
  E |----------------------------------------------------|
  B |--------2---------------2---------------2-------2---|
  G |------2---2-----------2---2-----------2---2-----2---|
  D |----4-------4-------4-------4-------4-------4---4---|
  A |--------------4---4-----------4---------------4-4---|
  E |2---------------2---------------2---------------2---|

GTR 1
  E |----------------------------------------------------|
  B |----------------------------------------------------|
  G |2-4-6~--6-------------------------------------------|
  D |----------7-4~--4-6-7--7--4~--7--6~--4h6p4----------|
  A |-------------------------------------------8--6-8-9~|
  E |----------------------------------------------------|

  E |----------------------------------------------------|
  B |----------------------------------------------------|
  G |2-4-6---6h7p6p4--4-6-7--7--4~--------4---4-7-6~--6-4|
  D |-------------------------------7~--7---7------------|
  A |----------------------------------------------------|
  E |----------------------------------------------------|

  E |----------------------------------------------------|
  B |6~--6------------4--6-------------------------------|
  G |------7--7-6--7--------7~--4~--4h6p4\2--------------|
  D |----------------------------------------4-----------|
  A |----------------------------------------------------|
  E |----------------------------------------------------|

  E |----------------------------------------------------|
  B |----------------------------------------------------|
  G |-------------6-4~--4h6p4----------------------------|
  D |4--4-6-7-6-7-------------7~--4-6~--4h6p4------------|
  A |-----------------------------------------8--6-8--9~-|
  E |----------------------------------------------------|

(GTR 2 plays behind GTR 1 and 3)

GTR 3
  E |----------------------------------------------------|
  B |----------------------------------------------------|
  G |2-4-6~--6-------------------------------------------|
  D |----------7-4~--4-6-7--7--4~--7--6~--4h6p4----------|
  A |-------------------------------------------8--6-8-9~|
  E |----------------------------------------------------|

GTR 1
  E |----------------------------------------------------|
  B |----------------------------------------------------|
  G |2-4-6---6h7p6p4--4-6-7--7--4~--------4---4-7-6~-----|
  D |-------------------------------7~--7---7------------|
  A |----------------------------------------------------|
  E |----------------------------------------------------|

GTR 3
  E |----------------------------------------------------|
  B |----------------------------------------------------|
  G |-------------------------------------4---4-7-6~-----|
  D |4-6-7--7--7------4-7-9--9--6~--7~--7---7------------|
  A |----------------------------------------------------|
  E |----------------------------------------------------|

GTR 1
  E |----------------------------------------------------|
  B |----------------------------------------------------|
  G |2-4-6~--6----------4-6------------------------------|
  D |----------7--7-6-7-----7~-4--4h6p4\2----------------|
  A |-------------------------------------4--------------|
  E |----------------------------------------------------|


GTR 3
  E |----------------------------------------------------|
  B |--------------5--3~-3h5p3---------------------------|
  G |2-1-2-4-6-4-6-------------6--2--4~-2h4p2-------4-2~-|
  D |-----------------------------------------6-4-6------|
  A |----------------------------------------------------|
  E |----------------------------------------------------|
(finish with)
  E |-----------------------------------------------|
  B |-----2------------2----------------------------|
  G |2--2-2--2-2--2--2-2--2-2-----------------------|
  D |4--4-4--4-4--4--4-4--4-4-----------------------|
  A |4--4-4--4-4--4--4-4--4-4-----------------------|
  E |2--2-2--2-2--2--2-2--2-2-----------------------|
            

comments powered by Disqus
↑ Back to top | In Flames Tabs for Pallar Anders Visa. Lyrics for acoustic guitar and electric guitar. Tablatures and chords are parodies/interpretations of the original songs. You may use it for private study, scholarship, research or language learning purposes only