» » »

Pallar Anders Visa Tabs (ver.2)

Artists:  A B C D E F G H I J K L M N O P Q R S T U V W X Y Z # 

Pallar Anders Visa Tabs (ver.2)

In Flames
Rating:
0/5 (0 votes)

Tabs too difficult? Try these video lessons and learn fast.
                Tuning: 1 1/2 Down

INTRO

Guitar 1
---------0------------------0-------------0--------0-----
-----------1-----------------1--------------1------1-----
------2------2---------2-------2--------2-----2----2-----
----2----------2-----2---2-------2----2---------2--2-----
--0----------------0----------------0--------------0-----
---------------------------------------------------------

Repeat that the whole time with different variations

Guitar 2
-----------------------------------------------
-----------------------------------------------
----7--7h9-9-----------------------------------
-10----------10-10-7-10--9--9h7p9-6---6-9--10--
------------------------------------7----------
-----------------------------------------------

----7-7-9-9-9-9-10h9p7-7--9-10--7----------7----7-10--9---7----
-10---------------------------------10--10---10----------------

Repeat Both Of These As Many Times As Needed

STRINGS SECTION

Guitar 1 Strum an Am
-0-
-1-
-2-
-2-
-0-
-x-


-15------20--19-----17--------------------------------
-13--17-----------------------------------------------
-----14------16-----14-----14---16--------------------
---------14----------------15---14--------------------
------------------------------------------------------
------------------------------------------------------

Repeat and fade out



That was for you Eddie
            
Tabs too difficult? Try these video lessons and learn fast.


comments powered by Disqus
↑ Back to top | Tablatures and chords are parodies/interpretations of the original songs. You may use it for private study, scholarship, research or language learning purposes only