» » »

Episode Bass tabs (ver.1)

Artists:  A B C D E F G H I J K L M N O P Q R S T U V W X Y Z # 

Episode Bass tabs (ver.1)

In Flames
Rating:
0/5 (0 votes)
Tabs too difficult? Try these video lessons and learn fast.
                "(6)
Tune Bass to (C,F,Bb,Eb)

Episode 666

INTRO
|--------------------------------------------------------------|
|--------------------------------------------------------------|
|--------------------------------------------------------------|
|0-------------------------------------------------------------|

JOIN IN W/DRUMS
|--------------------------------------------------------------|
|--------------------------------------------------------------|
|-3-3-3--5-5-5/7-----------------------------------------------|
|--------------------------------------------------------------|

RIFF A
|--------------------------------------------------------------|
|--------------------------------------------------------------|
|----2-3-7-----7-7-5-----5-5--3-3-3-5-5-5/7--------------------|
|000-------000-------000---------------------------------------|

RIFF B.1 (PRE-CHORUS)
|--------------------------------------------------------------|
|-----------------7--------------------------------------------|
|3-3-5-7--7-9-10----10-9-7-------------------------------------|
|--------------------------------------------------------------|

RIFF B.2 (PRE-CHORUS)
|--------------------------------------------------------------|
|--------------------------------------------------------------|
|3-3-5---------------------------------------------------------|
|------3333333-------------------------------------------------|

RIFF B.3 (STILL PRECHORUS)
|--------------------------------------------------------------|
|--------------------------------------------------------------|
|3-3-5-22222---------------------------------------------------|
|--------------------------------------------------------------|

RIFF C (CHORUS)
|--------------------------------------------------------------|
|--------------------------------------------------------------|
|777777-55555--------333--555----------------------------------|
|-------------777777-------------------------------------------|

RIFF D (POST COOL GUITAR THINGY)
|--------------------------------------------------------------|
|--------------------------------------------------------------|
|----7-------------333-555/7-----------------------------------|
|000----000000000----------------------------------------------|

RIFF E (SOLO)
|--------------------------------------------------------------|
|--------------------------------------------------------------|
|7-7-7-7-7-7-7--3-3-3-3-3-3--4-4-4-4-4-4--5-5-5-5-5-5----------|
|--------------------------------------------------------------|

RIFF E.1 (SAME AS CHORUS RIFF, BUT UP TWO STEPS)
|--------------------------------------------------------------|
|--------------------------------------------------------------|
|----------------------5-5-5-5-5--6-6-6--8-8-8-----------------|
|3-3-3-3-3--1-1-1-1-1------------------------------------------|

RIFF F
|--------------------------------------------------------------|
|--------------------------------------------------------------|
|777777777777777-----------------------------------------------|
|-----------------555555555555555------------------------------|
"            
Tabs too difficult? Try these video lessons and learn fast.


comments powered by Disqus
↑ Back to top | Tablatures and chords are parodies/interpretations of the original songs. You may use it for private study, scholarship, research or language learning purposes only