>
 >
Episode 6

Episode 6 Guitar Tabs

In Flames - Episode 6 chords, tabs, tablatures, lyrics

Guitar lessons | Add/correct | Request | Top 50 tabs Artists:  A B C D E F G H I J K L M N O P Q R S T U V W X Y Z 0-9

Episode 6 Guitar Tabs – In Flames

CD, Sheet music, Poster

Do you like Episode 6? Share with your friends now
Tabs
IN FLAMES - EPISODE 666
                         From the Album WHORACLE           
                      Copyright 1997 Nuclear Blast
                       Version 2.0b - January 1999     


Transcription Done By: Jeremy Disten & Rich Broadhead (Displacer)
          phrasing of the solo.
For Questions, Comments, Corrections, or Newest Version;

This tab made possible by Elite Members of Displacers Death Tab!!!

Check Out Displacer's Web Page, With More Transcriptions On It: 
To Join The Official Displacer's Death Tab Mailing List Contact Rich at 
 
.  - palm mute                          /  - slide up to
\  - slide down to                      ~  - vibrato
"  - tremelo picking                    () - ghost note
p  - pull off                           h  - hammer-on 
tr - trill notes                        fb - full bend (1step)


               (were, you'd have a 50 page transcription!!!  We wrote  )
               (how the riff is played the majority of the time, ...if )
               (they strummed a chord 1 extra time on the 5th repeat or)
               (something stupid like that, we just ignored it.)

Episode 666 -


Tuning = C (C,F,A#,D#,G,C)


Riff A
|----------------------------------------------------------------|
|----------------------------------------------------------------|
|-------4---0-------------------------------------------------4--|Gtr
|-2-----4---2---5-------5---4---7-------7---5---5-5---7---5-7----| I
|-2-----2---3---7-------7---7---5-------5---5---3-3---5----------|
|-0-0-0---0---0---0-0-0---0---0---0-0-0---0---0-----0------------|
|   . .   .   .   . . .   .   .   . . .   .   .     .            |
|                                                                |
|----------------------------------------------------------------|
|----------------------------------------------------------------|
|-----------------------------------------------5-5---7----------|Gtr   
|-----------------------------------------------5-5---7-----4-5--| II
|-----------------------------------------------3-3---5---7------|
|---------------------------------------------------0------------|
|                                                   .            |
|                                                                |
|----------------------------------------------------------------|
|----------------------------------------------------------------|
|-----------------------------------------------5-5---7---7-7-7--|Gtr
|-----------------------------------------------5-5---7---7-7-7--| III
|-----------------------------------------------3-3---5---5-5-5--|
|---------------------------------------------------0------------|
                                                    .           


Riff B.1
|-----------------------------------------------|
|-----------------------------------------------|
|-------4---0-----------------------------------|Gtrs I &
|-2-----4---2---5-------5---4---7-------7---5---| II & III
|-2-----2---3---7-------7---7---5-------5---5---|
|-0-0-0---0---0---0-0-0---0---0---0-0-0---0---0-|
    . .   .   .   . . .   .   .   . . .   .   .             


Fill at the End of Riff B.1
|----hp------hpp-----|---|
|/5-353-1-3-1310-----|---|
|----------------2---|-*-|Gtr I  * =(Gtr I plays the 5 instead of the)
|------------------4-|-5-|          (E chord for the first note of)
|--------------------|-*-|          (Riff B, when repeating riff B)
|--------------------|---|
|                    |
|                    |
|--------------------|
|------------hpp-----|
|/5-4---2-4-2420-----|Gtr II
|----------------4-0-|
|--------------------|
|--------------------|
|                    |
|                    |
|--------------------|
|--------------------|
|-5--5-----7---7-7-7-|Gtr III
|-5--5-----7---7-7-7-|
|-3--3-----5---5-5-5-|
|-------0------------|
        .

Repeat Riff B (3 Times)


Riff C1 
|------------------------------------------|
|------------------------------------------|
|-5--5--5--5---7---9-----------------------|Gtr I
|-5--5--5--5---7---9------------7----------|
|-3--3--3--3---5---7---7--9-10----10--9--7-|
|------------------------------------------|
|                                          |
|------------------------------------------|
|------------------------------------------|
|-5--5--5--5---7---9-----------------------|Gtr II
|-5--5--5--5---7---9------7--9-10--9--7----|
|-3--3--3--3---5---7--10----------------10-|
|------------------------------------------|
|                                          |
|------------------------------------------|
|------------------------------------------|
|-5--5--5--5---7---9---9--9--9--9--9--9--9-|Gtr III
|-5--5--5--5---7---9---9--9--9--9--9--9--9-|
|-3--3--3--3---5---7---7--7--7--7--7--7--7-|
|------------------------------------------|
                                       


|------------------------------------------|
|----------------------------hp------------|
|-5--5--5--5----7---12---7-5-454-----------|Gtr I
|-5--5--5--5----7---12------------7-5--4---|
|-3--3--3--3----5---10-------------------7-|
|------------------------------------------|
|                                          |
|------------------------------------------|
|------------------------------------------|
|-5--5--5--5----7---12---------------------|Gtr II
|-5--5--5--5----7---12---9-7----*h---------|
|-3--3--3--3----5---10-------10-7-9-7------|*(play only the 9 on repeats)
|-------------------------------*-----10-8-| (7 and h only get played 1st)
|                                          | (time through!!!)
|------------------------------------------|
|------------------------------------------|
|-5--5--5--5----7---12--------(12)---------|Gtr III
|-5--5--5--5----7---12--------(12)---------|
|-3--3--3--3----5---10--------(10)---------|
|------------------------------------------||------------------------------------------|
|------------------------------------------|
|-5--5--5--5---7---9-----------------------|Gtr I
|-5--5--5--5---7---9------------7----------|
|-3--3--3--3---5---7---7--9-10----10--9--7-|
|------------------------------------------|
|                                          |
|------------------------------------------|
|------------------------------------------|
|-5--5--5--5---7---9-----------------------|Gtr II
|-5--5--5--5---7---9------7--9-10--9--7----|
|-3--3--3--3---5---7--10----------------10-|
|------------------------------------------|
|                                          |
|------------------------------------------|
|------------------------------------------|
|-5--5--5--5---7---9---9--9--9--9--9--9--9-|Gtr III
|-5--5--5--5---7---9---9--9--9--9--9--9--9-|
|-3--3--3--3---5---7---7--7--7--7--7--7--7-|
|------------------------------------------|


|------------------------------------------|
|------------------------------------------|
|-5--5--5--5---7---4--4--------------------|Gtr I
|-5--5--5--5---7---4--4--444455557777------|
|-3--3--3--3---5---2--2--------------------|
|------------------------------------------|
|                                          |
|------------------------------------------|
|------------------------------------------|
|-5--5--5--5---7---4--4--------------------|Gtr II
|-5--5--5--5---7---4--4--111122224444------|
|-3--3--3--3---5---2--2--------------------|
|------------------------------------------|
|                                          |
|------------------------------------------|
|------------------------------------------|
|-5--5--5--5---7---4--4--------------------|Gtr III
|-5--5--5--5---7---4--4--444444444444------|
|-3--3--3--3---5---2--2--222222222222------|
|------------------------------------------|

Repeat Riff B (4 Times)
Repeat Riff C (1 Time)

Riff D.1
|----------------------------------------------------------------|
|--p---------------p--------------p------------------------------|
|-4-2-------2-4-2---0--------2-2-4-0-0-------------(0)-----------|Gtr I
|-----5-5-------------4-4--5-------------------------------------|
|----------------------------------------------------------------|
|----------------------------------------------------------------|
|                                                                |
|----------------------------------------------------------------|
|----------------------------------------------------------------|
|--p---------------p--------------p------------------------------|Gtr II
|-5-4-2-2---4-5-4---2-0-0--2-4-4-5-2-2-------------(2)~----------|
|----------------------------------------------------------------|
|----------------------------------------------------------------|
|                                                                |
|----------------------------------------------------------------|
|----------------------------------------------------------------|
|-9-9-9-9--9-9--7-7-7-7-7--7-7--4-4-4-4-4--4-4--5--5-5--7--7-7-7-|Gtr III
|-9-9-9-9--9-9--7-7-7-7-7--7-7--4-4-4-4-4--4-4--5--5-5--7--7-7-7-|
|-7-7-7-7--7-7--5-5-5-5-5--5-5--2-2-2-2-2--2-2--3--3-3--5--5-5-5-|
|----------------------------------------------------------------|


Repeat Riff D.1 (3 Times)


Riff E.1     
    p   h     p  h  p  h  h  p  h  p  h  h  p  h
|--3--0--5-\3--0--7--0--7--8--0--5--0--5--8--5--7--|
|--------------------------------------------------|
|--------------------------------------------------|Gtr I
|--------------------------------------------------|
|--------------------------------------------------|
|--------------------------------------------------|
|                            p     p    h   p h    |
|-15\12-17\15-12-19-15-19-17--0-14--0-14-17--0-14--|
|--------------------------------------------------|
|--------------------------------------------------|Gtr II
|--------------------------------------------------|
|--------------------------------------------------|
|--------------------------------------------------|
|                                                  |
|--------------------------------------------------|
|--------------------------------------------------|
|--------------------------------------------------|Gtr III
|-2------------------------------------------------|
|-2---------------------------------------2--2--2--|
|-0---------------------------------------0--0--0--|


Riff E.2
    p   h     p  h  p  h  h  p  h  p  h  h  p  h
|--3--0--5-\3--0--7--0--7--8--0--5--0--5--8--5--7--|
|--------------------------------------------------|
|--------------------------------------------------|Gtr I
|--------------------------------------------------|
|--------------------------------------------------|
|--------------------------------------------------|
|                            p     p    h   p h    |
|-15\12-17\15-12-19-15-19-17--0-14--0-14-17--0-14--|
|--------------------------------------------------|
|--------------------------------------------------|Gtr II
|--------------------------------------------------|
|--------------------------------------------------|
|--------------------------------------------------|
|                                                  |
|--------------------------------------------------|
|--------------------------------------------------|
|--------------------------------------------------|Gtr III
|--------------------------------------------------|
|--2--2--2--2--2--2--2--2--2--2--2--2--2--2--2--2--|
|--0--0--0--0--0--0--0--0--0--0--0--0--0--0--0--0--|
      .  .     .     .     .  .  .     .     .


     p  h     p  h  p  h  h  p     h  p  h  h  p
|--3--0--5-\3--0--7--0--7--8--0--0--7--0--3--5-*0*-| 
|-----------------------------------------------*--|   
|--------------------------------------------------|Gtr I
|--------------------------------------------------|
|--------------------------------------------------|
|--------------------------------------------------|
|                                                  |*=(Don't play last)
|-15\12-19-15----19-15-19--------------------------|  (Note on repeat)
|-------------17----------17-------15--------------|
|----------------------------17-14----16----17--*--|Gtr II
|----------------------------------------14---*14*-|
|-----------------------------------------------*--|
|--------------------------------------------------|
|                                                  |
|--------------------------------------------------|
|--------------------------------------------------|
|--------------------------------------------------|Gtr III
|--------------------------5-----5--5--7-----7--7--|
|--2--2--2--2--2--2--2--2--3-----3--3--5-----5--5--|
|--0--0--0--0--0--0--0--0--------------------------|
   .  .  .     .     .                         


Repeat Riff E.2


Riff F
|----------------------------------------------h-------------------|
|---------7---8-----------7---8-----------7---78-7--7-8-8fb+r--7---|
|-9---9---------9-----9---------9-----9--------------------------9-|Gtr I
|------------------------------------------------------------------|
|---7---7---7-------7---7---7-------7---7---7----------------------|
|------------------------------------------------------------------|
|   .   .   .       .   .   .       .   .   .                      |
|                                                                  |
|----------------------------------------------h----5-7-7hb+r--5---|
|---------7---8-----------7---8-----------7---78-7---------------8-|
|-9---9---------9-----9---------9-----9----------------------------|Gtr II
|------------------------------------------------------------------|   
|---7---7---7-------7---7---7-------7---7---7----------------------|
|------------------------------------------------------------------|
|   .   .   .       .   .   .       .   .   .                      |
|                                                                  |
|------------------------------------------------------------------|
|------------------------------------------------------------------|
|------------------------------------------------------------------|Gtr III
|-9---------9---5--5-5---5-5----7--7-7---7-7-----7--7-7-7-7-7-7----|
|-7-7-7-7-7-7-7-3--3-3-3-3-3-3--4--4-4-4-4-4-4---5--5-5-5-5-5-5----|
|---.-.-.-.---.--------.-----.---------.-----.---------------------||-----------------------------------------------h-------------------|
|---------7---8-----------7---8------------7---78-7--7-8-8fb+r--7---|
|-----9---------9-----9---------9------9--------------------------9~|Gtr I
|-------------------------------------------------------------------|
|---7---7---7-------7---7---7--------7---7---7----------------------|
|-------------------------------------------------------------------|
|   .   .   .       .   .   .        .   .   .                      |
|                                               h                   |
|-------------7---------------7----------------57-5--5-7-7hb+r--5---|
|-----8--10-----8-----8--10-----8------8--10----------------------8~|
|-------------------------------------------------------------------|Gtr II
|-------------------------------------------------------------------|   
|---7---7---7-------7---7---7--------7---7---7----------------------|
|-------------------------------------------------------------------|
|   .   .   .       .   .   .        .   .   .                      |
|                                                                   |
|-------------------------------------------------------------------|
|-------------------------------------------------------------------|
|-------------------------------------------------------------------|Gtr III
|-9---------9---5--5-5---5-5----7--7-7---7-7-----7--7-7-7-7-7-7-7---|
|-7-7-7-7-7-7-7-3--3-3-3-3-3-3--4--4-4-4-4-4-4---5--5-5-5-5-5-5-5---|
|---.-.-.-.---.--------.-----.---------.-----.----------------------|
Repeat Riff D.1 (1 Time)


Riff D.2
|----------------------------------------------|
|--p---------------p--------------p------------|
|-4-2-------2-4-2---0--------2-2-4-0-0---------|Gtr I
|-----5-5-------------4-4--5-------------------|
|----------------------------------------------|
|----------------------------------------------|
|                                              |
|----------------------------------------------|
|----------------------------------------------|
|--p---------------p--------------p------------|Gtr II
|-5-4-2-2---4-5-4---2-0-0--2-4-4-5-2-2---------|
|----------------------------------------------|
|----------------------------------------------|
|                                              |
|----------------------------------------------|
|----------------------------------------------|
|-9-9-9-9--9-9--7-7-7-7-7--7-7--4-4-4-4-4--4-4-|Gtr III
|-9-9-9-9--9-9--7-7-7-7-7--7-7--4-4-4-4-4--4-4-|
|-7-7-7-7--7-7--5-5-5-5-5--5-5--2-2-2-2-2--2-2-|
|----------------------------------------------||----------------------------------------------|
|------hp-----------------hp-------------------|
|--4--242---4---------4--242---2---------------|Gtr I
|---------5---5-4-2----------5---5-4-2---------|
|----------------------------------------------|
|----------------------------------------------|
|                                              |
|----------------------------------------------|
|------hp-----------------hp-------------------|
|--4--242---4---------7--575---5---------------|Gtr II
|---------5---5-4-2----------8---8-7-5---------|
|----------------------------------------------|
|----------------------------------------------|
|                                              |
|----------------------------------------------|
|----------------------------------------------|
|----------------------------------------------|Gtr III
|--5------------------7------------------------|
|--3------------3-3---5------------------------|
|----------------------------------------------|
                . .


Riff G
|----------------------------------------------------------------|
|---------------------------------------------hp-----------------|
|--p---------------p--------------p--------7-575---5-------------|Gtr I
|-8-7-5-5---7-8-7---5------5-7-7-8-5-5-----------8---8-7-5-7-----|
|---------------------8-8----------------------------------------|
|----------------------------------------------------------------|
|                                                                |
|---------------------------------------------hp-----------------|
|--p---------------------------------------6-464---4-------------|
|-7-5-------5-7-5------------5-5-7---------------7---7-5-3-5-----|Gtr II
|-----8-8-----------8-7-7--8-------8-8---------------------------|
|----------------------------------------------------------------|
|----------------------------------------------------------------|
|                                                                |
|----------------------------------------------------------------|
|----------------------------------------------------------------|
|-7-7-7-7--7-7--5-5-5-5-5--5-5--7-7-7-7-7--7-7--8--8-8--5--5-5-5-|Gtr III
|-5-5-5-5--5-5--3-3-3-3-3--3-3--7-7-7-7-7--7-7--8--8-8--3--3-3-3-|
|-------------------------------5-5-5-5-5--5-5--6--6-6-----------|
|----------------------------------------------------------------||----------------------------------------------------------------|
|----------------------------------------------------------------|
|--p------------5-----------------------p------------------------|Gtr I
|-8-7-5-5---7-8-----8--7-----5--7--7--8--5--5~-------------------|
|-------------------------8--------------------------------------|
|----------------------------------------------------------------|
|                                                                |
|----------------------------------------------------------------|
|--p--------------/10-10-10-11-13-13-13fb+r-11-------------------|
|/7-5-------5-7-8-------------------------------10-12-10~~~------|Gtr II
|-----8-8--------------------------------------------------------|
|----------------------------------------------------------------|
|----------------------------------------------------------------|
|                                                                |
|----------------------------------------------------------------|
|----------------------------------------------------------------|
|-7-7-7-7--7-7--5-5-5-5-5--5-5--7-7-7-7-7--7-7--8--8-8--5--5-5-5-|Gtr III
|-5-5-5-5--5-5--3-3-3-3-3--3-3--7-7-7-7-7--7-7--8--8-8--3--3-3-3-|
|-------------------------------5-5-5-5-5--5-5--6--6-6-----------|
|----------------------------------------------------------------|


Riff H
|--------------------------------------------------------------------|
|--------------------------------------------------------------------|
|-----------------4-------4-2----4-------2-----2-----2-----4-2-------|
|-2-------5-------------------5------------4-----------4-------4-----|
|----------------------------------5-------------5-------------------|
|--------------------------------------------------------------------|
|                                                                    |
|--------------------------------------------------------------------|
|--------------------------------------------------------------------|
|-----------------4-------4-2----4-------2-----2-----2---------------|
|-2-------5-------------------5------------4-----------4---5-4-------|
|----------------------------------5-------------5-------------5-----|
|--------------------------------------------------------------------|
|                                                                    |
|--------------------------------------------------------------------|
|--------------------------------------------------------------------|
|--------------------------------------------------------------------|
|---------------------------------------------------2----------------|
|----------------------------------0-000-000-000-00-0---0--000-000-00|
|-0-000-000-000-000-000-000-000-00-----------------------------------|


Repeat Riff C (2 Times)
Repeat Riff D (4 Times)
Repeat Riff B (1 Time)


Riff I
|----------------------------------------------------------------|
|----------------------------------------------------------------|
|-------4---0-------------------------------------------------4--|Gtr
|-2-----4---2---5-------5---4---7-------7---5---5-5---7---5-7----| I
|-2-----2---3---7-------7---7---5-------5---5---3-3---5----------|
|-0-0-0---0---0---0-0-0---0---0---0-0-0---0---0-----0------------|
|   . .   .   .   . . .   .   .   . . .   .   .     .            |
|                                                                |
|----------------------------------------------------------------|
|----------------------------------------------------------------|
|-------4---0----------------------------------------------------|Gtr
|-2-----4---2---5-------5---4---7-------7---5---5-5---7-----4-5--| II
|-2-----2---3---7-------7---7---5-------5---5---3-3---5---7------|
|-0-0-0---0---0---0-0-0---0---0---0-0-0---0---0-----0------------|
|   . .   .   .   . . .   .   .   . . .   .   .     .            |
|                                                                |
|----------------------------------------------------------------|
|----------------------------------------------------------------|
|-------4---0-----------------------------------5-5---7---7-7-7--|Gtr
|-2-----4---2---5-------5---4---7-------7---5---5-5---7---7-7-7--| III
|-2-----2---3---7-------7---7---5-------5---5---3-3---5---5-5-5--|
|-0-0-0---0---0---0-0-0---0---0---0-0-0---0---0-----0------------|
    . .   .   .   . . .   .   .   . . .   .   .     .             |--------|
|--------|
|--------|Gtr I   
|-2---2--|
|-2---2--|
|-0---0--|
|        |
|--------|
|--------|
|--------|Gtr II  
|-9---9--| 
|-7---7--|
|-0---0--|


Check out DEATH WARP, With More Transcriptions On It:

Check Out Displacer's Web Page, With More Transcriptions On It: 





Comments


Popular In Flames tabs & chords
Behind Space Bass Tabs
Behind Space Tabs
Bullet Ride 1 Tabs
Cloud Connected 3 Tabs
Crawl Through Knives Tabs
Dialog With The Stars Tabs
Kop Varm Korv Tabs
Only For The Weak Tabs
Saburban Me Tabs
Take This Life 5 Tabs


Song lyrics



↑ Back to top | Tablatures and chords are parodies/interpretations of the original songs. You may use it for private study, scholarship, research or language learning purposes only
© 2014 AZChords.com Contact us | Privacy policy | DMCA | Add/correct tabs | Request tabs | Top 50 tabs