>
 >
Episode 666

Episode 666 Guitar Tabs

In Flames - Episode 666 chords, tabs, tablatures, lyrics

Guitar lessons | Add/correct | Request | Top 50 tabs Artists:  A B C D E F G H I J K L M N O P Q R S T U V W X Y Z 0-9

Episode 666 Guitar Tabs – In Flames

CD, Sheet music, Poster

Do you like Episode 666? Share with your friends now
Bass TabsBass Tabs v2Bass Tabs v3Bass Tabs v4Bass Tabs v5TabsTabs v2

Tuning:
Gtr I (C F A# D# G C) - 'Guitar I'
Gtr II (C F A# D# G C) - 'Guitar II'
Gtr III (C F A# D# G C) - 'Guitar III'


  Q=165
 4/4
  Gtr I
    PM|   PM  PM    PM--|   PM  PM    PM--|   PM   PM          PM
  E E E E E E E E   E E E E E E E E   E E E E E  E E E   +E  E E Q  E E E
|-----------------|-----------------|------------------|-------------------|
|-----------------|-----------------|------------------|-------------------|
|-------4---0-----|-----------------|------------------|----------------4--|
|-2-----4---2---5-|-------5---4---7-|-------7----5---5-|-(5)-5---7--5-7----|
|-2-----2---3---7-|-------7---7---5-|-------5----5---3-|-(3)-3---5---------|
|-0-0-0---0---0---|-0-0-0---0---0---|-0-0-0---0----0---|-------0-----------|
|
| Gtr II
|                                                              PM
| W                 W                 H       Q.     E   +E  E E Q  E E E
|-----------------|-----------------|------------------|-------------------|
|-----------------|-----------------|------------------|-------------------|
|-----------------|-----------------|----------------5-|-(5)-5---7---------|
|-----------------|-----------------|----------------5-|-(5)-5---7----4-5--|
|-----------------|-----------------|----------------3-|-(3)-3---5--7------|
|-----------------|-----------------|------------------|-------0-----------|
|
| Gtr III
|                                                              PM
| W                 W                 H       Q.     E   +E  E E Q  E E E
|-----------------|-----------------|------------------|-------------------|
|-----------------|-----------------|------------------|-------------------|
|-----------------|-----------------|----------------5-|-(5)-5---7--7-7-7--|
|-----------------|-----------------|----------------5-|-(5)-5---7--7-7-7--|
|-----------------|-----------------|----------------3-|-(3)-3---5--5-5-5--|
|-----------------|-----------------|------------------|-------0-----------|


    $
    Gtr I
      PM|   PM  PM    PM--|   PM  PM
    E E E E E E E E   E E E E E E E E
||------------------|-----------------|
||o-----------------|-----------------|
||--------4---0-----|-----------------|
||--2-----4---2---5-|-------5---4---7-|
||o-2-----2---3---7-|-------7---7---5-|
||--0-0-0---0---0---|-0-0-0---0---0---|
|
|   Gtr II
|     PM|   PM  PM    PM--|   PM  PM
|   E E E E E E E E   E E E E E E E E
||------------------|-----------------|
||o-----------------|-----------------|
||--------4---0-----|-----------------|
||--2-----4---2---5-|-------5---4---7-|
||o-2-----2---3---7-|-------7---7---5-|
||--0-0-0---0---0---|-0-0-0---0---0---|
|
|   Gtr III
|   W                 W
||------------------|-----------------|
||o-----------------|-----------------|
||------------------|-----------------|
||------------------|-----------------|
||o-----------------|-----------------|
||------------------|-----------------|


  PM--|   PM   PM
  E E E E E  E E  E   +E  E     E E T T S E E E   4x
|-------------------|-----------------------------||
|-------------------|----------------------------o||
|----------------/5-|-(5)-4-----2-4-2h4p2-0-------||
|-------7----5------|-----------------------4-0---||
|-------5----5------|----------------------------o||
|-0-0-0---0----0----|-----------------------------||
|
| PM--|   PM   PM
| E E E E E  E E  E   +E  T T S E E T T S E E E   4x
|-------------------|-----------------------------||
|----------------/5-|-(5)-3h5p3-1-3-1h3p1p0------o||
|-------------------|-----------------------2-----||
|-------7----5------|-------------------------4---||
|-------5----5------|----------------------------o||
|-0-0-0---0----0----|-----------------------------||
|
|                               PM
| H       Q.      E   +E  E     E Q       E E E   4x
|-------------------|-----------------------------||
|-------------------|----------------------------o||
|-----------------5-|-(5)-5-------7-------7-7-7---||
|-----------------5-|-(5)-5-------7-------7-7-7---||
|-----------------3-|-(3)-3-------5-------5-5-5--o||
|-------------------|-----------0-----------------||


    $$
    Gtr I
    E E E Q  Q  E   +E   E E  E  E  E E  E
||----------------|------------------------|
||o---------------|------------------------|
||--5-5-5-5--7--9-|-(9)--------------------|
||--5-5-5-5--7--9-|-(9)----------7---------|
||o-3-3-3-3--5--7-|-(7)--7-9-10----10-9--7-|
||----------------|------------------------|
|
|   Gtr II
|   E E E Q  Q  E   +E   E E  E  E  E E  E
||----------------|------------------------|
||o---------------|------------------------|
||--5-5-5-5--7--9-|-(9)--------------------|
||--5-5-5-5--7--9-|-(9)----7--9-10--9-7----|
||o-3-3-3-3--5--7-|-(7)-10--------------10-|
||----------------|------------------------|
|
|   Gtr III
|   E E E Q  Q  E   +E   E E  E  E  E E  E
||----------------|------------------------|
||o---------------|------------------------|
||--5-5-5-5--7--9-|-(9)--9-9--9--9--9-9--9-|
||--5-5-5-5--7--9-|-(9)--9-9--9--9--9-9--9-|
||o-3-3-3-3--5--7-|-(7)--7-7--7--7--7-7--7-|
||----------------|------------------------|


 1.
  E E E Q  Q   E    +E   E  E  T T S  E  E  E  E
|----------------|---------------------------------||
|----------------|--------------------------------o||
|-5-5-5-5--7--12-|-(12)--7--5--4h5p4---------------||
|-5-5-5-5--7--12-|-(12)---------------7--5--4------||
|-3-3-3-3--5--10-|-(10)------------------------7--o||
|----------------|---------------------------------||
|
| E E E Q  Q   E    +E   E  E  E      E  E  E  E
|----------------|---------------------------------||
|----------------|--------------------------------o||
|-5-5-5-5--7--12-|-(12)----------------------------||
|-5-5-5-5--7--12-|-(12)--9--7----------------------||
|-3-3-3-3--5--10-|-(10)-------10------9--7--------o||
|----------------|-------------------------10--8---||
|
| E E E Q  Q   E    +E   E  E  E      E  E  E  E
|----------------|---------------------------------||
|----------------|--------------------------------o||
|-5-5-5-5--7--12-|-(12)-12-12-12-----12-12-12-12---||
|-5-5-5-5--7--12-|-(12)-12-12-12-----12-12-12-12---||
|-3-3-3-3--5--10-|-(10)-10-10-10-----10-10-10-10--o||
|----------------|---------------------------------||


  2.
                                            D.S.
  Gtr I
                        PM--------------------|
  E E E Q  Q  E   +E  E S S S S S S S S S S S S
|---------------|--------------------------------|
|---------------|--------------------------------|
|-5-5-5-5--7--4-|-(4)-4--------------------------|
|-5-5-5-5--7--4-|-(4)-4-4-4-4-4-5-5-5-5-7-7-7-7--|
|-3-3-3-3--5--2-|-(2)-2--------------------------|
|---------------|--------------------------------|
|
| Gtr II
|                       PM--------------------|
| E E E Q  Q  E   +E  E S S S S S S S S S S S S
|---------------|--------------------------------|
|---------------|--------------------------------|
|-5-5-5-5--7--4-|-(4)-4--------------------------|
|-5-5-5-5--7--4-|-(4)-4-1-1-1-1-2-2-2-2-4-4-4-4--|
|-3-3-3-3--5--2-|-(2)-2--------------------------|
|---------------|--------------------------------|
|
| Gtr III
|                       PM--------------------|
| E E E Q  Q  E   +E  E S S S S S S S S S S S S
|---------------|--------------------------------|
|---------------|--------------------------------|
|-5-5-5-5--7--4-|-(4)-4--------------------------|
|-5-5-5-5--7--4-|-(4)-4-4-4-4-4-4-4-4-4-4-4-4-4--|
|-3-3-3-3--5--2-|-(2)-2-2-2-2-2-2-2-2-2-2-2-2-2--|
|---------------|--------------------------------|


    Gtr I
    E E E Q  E E E   +E  E E Q  E E E
||-----------------|------------------|
||o----------------|------------------|
||-----------------|------------------|
||--5p4-2-2--4h5-4-|-(4)-2p0-0--2h4-4-|
||o----------------|------------------|
||-----------------|------------------|
|
|   Gtr II
|   E E E Q  E E E   +E  E E Q  E E E
||-----------------|------------------|
||o----------------|------------------|
||--4p2------2h4-2-|-(2)-0--------2-2-|
||------5-5--------|-------4-4--5-----|
||o----------------|------------------|
||-----------------|------------------|
|
|   Gtr III
|   E E E Q  E Q      E  E E Q  E Q
||-----------------|------------------|
||o----------------|------------------|
||--9-9-9-9--9-9---|--7--7-7-7--7-7---|
||--9-9-9-9--9-9---|--7--7-7-7--7-7---|
||o-7-7-7-7--7-7---|--5--5-5-5--5-5---|
||-----------------|------------------|


  +E  E E E +H          +W                4x
|---------------------|-------------------||
|---------------------|------------------o||
|---------------------|-------------------||
|-(4)-5p2-2-(2)-------|-(2)---------------||
|---------------------|------------------o||
|---------------------|-------------------||
|
| +E  E E E +H          +W                4x
|---------------------|-------------------||
|---------------------|------------------o||
|-(2)-4p0-0-(0)-------|-(0)---------------||
|---------------------|-------------------||
|---------------------|------------------o||
|---------------------|-------------------||
|
|  E  E E Q     E E E   +E  E E Q  E Q    4x
|---------------------|-------------------||
|---------------------|------------------o||
|--4--4-4-4-----4-4-5-|-(5)-5-5-7--7-7----||
|--4--4-4-4-----4-4-5-|-(5)-5-5-7--7-7----||
|--2--2-2-2-----2-2-3-|-(3)-3-3-5--5-5---o||
|---------------------|-------------------||


To Coda
  Gtr I
   E  E  E  E  E  E  E  E    E E  E E  E  E E  E
|--3p=0h=5S=3p=0h=7p=0h=7h|==8p0h=5p0h=5h=8p5h=7-|
|-------------------------|----------------------|
|-------------------------|----------------------|
|-------------------------|----------------------|
|-------------------------|----------------------|
|-------------------------|----------------------|
|
| Gtr II
|  E  E  E  E  E  E  E  E    E E  E E  E  E E  E
|-15S12-17S15-12-19-15-19-|-17p0-14p0-14h17p0h14-|
|-------------------------|----------------------|
|-------------------------|----------------------|
|-------------------------|----------------------|
|-------------------------|----------------------|
|-------------------------|----------------------|
|
| Gtr III
|                                         PM--|
|  Q     H.                  H         E  E E  E
|-------------------------|----------------------|
|-------------------------|----------------------|
|-------------------------|----------------------|
|--2----------------------|----------------------|
|--2----------------------|---------------2-2--2-|
|--0----------------------|---------------0-0--0-|


     E  E  E  E  E  E  E  E    E E  E E  E  E E  E
||---3p=0h=5S=3p=0h=7p=0h=7h|==8p0h=5p0h=5h=8p5h=7-|
||o-------------------------|----------------------|
||--------------------------|----------------------|
||--------------------------|----------------------|
||o-------------------------|----------------------|
||--------------------------|----------------------|
|
|    E  E  E  E  E  E  E  E    E E  E E  E  E E  E
||--15S12-17S15-12-19-15-19-|-17p0-14p0-14h17p0h14-|
||o-------------------------|----------------------|
||--------------------------|----------------------|
||--------------------------|----------------------|
||o-------------------------|----------------------|
||--------------------------|----------------------|
|
|       PM|      PM    PM      PM--|     PM   PM
|    E  E  E  E  E  E  E  E    E E  E E  E  E E  E
||--------------------------|----------------------|
||o-------------------------|----------------------|
||--------------------------|----------------------|
||---2--------2-----2-----2-|---------2-----2----2-|
||o--2--2--2--2--2--2--2--2-|--2-2--2-2--2--2-2--2-|
||---0--0--0--0--0--0--0--0-|--0-0--0-0--0--0-0--0-|


  1.
  Gtr I
   E  E  E  E  E  E  E  E    E   E  E  E  E  E  E  E
|--3p=0h=5S=3p=0h=7p=0h=7h|==8p==0--0h=7p=0h=3h=5p=0--||
|-------------------------|--------------------------o||
|-------------------------|---------------------------||
|-------------------------|---------------------------||
|-------------------------|--------------------------o||
|-------------------------|---------------------------||
|
| Gtr II
|  E  E  E  E  E  E  E  E    E   E  E  E  E  E  E  E
|-15S12-19-12----19-15-19-|---------------------------||
|-------------17----------|-17--------15-------------o||
|-------------------------|-----17-14----16----17-----||
|-------------------------|-----------------14----14--||
|-------------------------|--------------------------o||
|-------------------------|---------------------------||
|
| Gtr III
|  PM---|      PM    PM
|  E  E  E  E  E  E  E  E   +E   E  E  Q     E  Q
|-------------------------|---------------------------||
|-------------------------|--------------------------o||
|-----------------------5-|-(5)--5--5--7-----7--7-----||
|-----------2-----2-----5-|-(5)--5--5--7-----7--7-----||
|--2--2--2--2--2--2--2--3-|-(3)--3--3--5-----5--5----o||
|--0--0--0--0--0--0--0----|---------------------------||


  2.
                           7/8
   E  E  E  E  E  E  E  E    E   E  E  E  E  E  E
|--3p=0h=5S=3p=0h=7p=0h=7h|==8p==0--0h=7p=0h=3h=5-|
|-------------------------|-----------------------|
|-------------------------|-----------------------|
|-------------------------|-----------------------|
|-------------------------|-----------------------|
|-------------------------|-----------------------|
|
|  E  E  E  E  E  E  E  E    E   E  E  E  E  E  E
|-15S12-19-12----19-15-19-|-----------------------|
|-------------17----------|-17--------15----------|
|-------------------------|-----17-14----16----17-|
|-------------------------|-----------------14----|
|-------------------------|-----------------------|
|-------------------------|-----------------------|
|
|  PM---|      PM    PM
|  E  E  E  E  E  E  E  E   +E   E  E  Q     E  E
|-------------------------|-----------------------|
|-------------------------|-----------------------|
|-----------------------5-|-(5)--5--5--7-----7--7-|
|-----------2-----2-----5-|-(5)--5--5--7-----7--7-|
|--2--2--2--2--2--2--2--3-|-(3)--3--3--5-----5--5-|
|--0--0--0--0--0--0--0----|-----------------------|


 4/4
  Gtr I
     PM  PM  PM       PM  PM  PM       PM  PM  PM
  Q  E E E E E E   Q  E E E E E E   Q  E E E E E T S.   Q.    E E Q      E
|----------------|----------------|-------------------|--------------------|
|----------7---8-|----------7---8-|----------7---7h8--|-7-----7-8-8b10r==7-|
|-9----9---------|-9----9---------|-9----9------------|--------------------|
|----------------|----------------|-------------------|--------------------|
|----7---7---7---|----7---7---7---|----7---7---7------|--------------------|
|----------------|----------------|-------------------|--------------------|
|
| Gtr II
|    PM  PM  PM       PM  PM  PM       PM  PM  PM
| Q  E E E E E E   Q  E E E E E E   Q  E E E E E T S.   Q.    E E Q      E
|----------------|----------------|-------------------|-------5-7-7b9r===5-|
|----------7---8-|----------7---8-|----------7---7h8--|-7------------------|
|-9----9---------|-9----9---------|-9----9------------|--------------------|
|----------------|----------------|-------------------|--------------------|
|----7---7---7---|----7---7---7---|----7---7---7------|--------------------|
|----------------|----------------|-------------------|--------------------|
|
| Gtr III
|    PM----|   PM         PM    PM         PM    PM
| Q  E E E E E E   Q  E E E E E E   Q  E E E E E E      Q   E E E E    E E
|----------------|----------------|-------------------|--------------------|
|----------------|----------------|-------------------|--------------------|
|----------------|----------------|-------------------|--------------------|
|-9----------9---|-5--5-5---5-5---|-7--7-7---7-7------|-7---7-7-7-7----7-7-|
|-7--7-7-7-7-7-7-|-3--3-3-3-3-3-3-|-4--4-4-4-4-4-4----|-5---5-5-5-5----5-5-|
|----------------|----------------|-------------------|--------------------|


  Gtr I
     PM  PM   PM       PM  PM   PM
  Q  E E E  E E E   Q  E E E  E E E
|-----------------|-----------------|
|-----------7---8-|-----------7---8-|
|-9----9----------|-9----9----------|
|-----------------|-----------------|
|----7---7----7---|----7---7----7---|
|-----------------|-----------------|
|
| Gtr II
|    PM  PM   PM       PM  PM   PM
| Q  E E E  E E E   Q  E E E  E E E
|---------------7-|---------------7-|
|-8----8---10-----|-8----8---10-----|
|-----------------|-----------------|
|-----------------|-----------------|
|----7---7----7---|----7---7----7---|
|-----------------|-----------------|
|
| Gtr III
|    PM----|    PM         PM     PM
| Q  E E E  E E E   Q  E E E  E E E
|-----------------|-----------------|
|-----------------|-----------------|
|-----------------|-----------------|
|-9-----------9---|-5--5-5----5-5---|
|-7--7-7-7--7-7-7-|-3--3-3-3--3-3-3-|
|-----------------|-----------------|


                      9/8
     PM  PM   PM
                                 |----3-----|
  Q  E E E  E E T S.   Q.    E E Q      Q   Q
|--------------------|---------------------------|
|-----------7---7h8--|-7-----7-8-8b10r==8---7----|
|-9----9-------------|---------------------------|
|--------------------|---------------------------|
|----7---7----7------|---------------------------|
|--------------------|---------------------------|
|
|    PM  PM   PM
|                                |----3-----|
| Q  E E E  E E T S.   Q.    E E Q      Q   Q
|---------------5h7--|-------5-7-7b8r===7---5----|
|-8----8---10--------|-7-------------------------|
|--------------------|---------------------------|
|--------------------|---------------------------|
|----7---7----7------|---------------------------|
|--------------------|---------------------------|
|
|        PM     PM
| Q  E E E  E E E      Q   E E E E    E   E   E
|--------------------|---------------------------|
|--------------------|---------------------------|
|--------------------|---------------------------|
|-7--7-7----7-7------|-7---7-7-7-7----7---7---7--|
|-4--4-4-4--4-4-4----|-5---5-5-5-5----5---5---5--|
|--------------------|---------------------------|


 4/4
  Gtr I
  E  E   E   Q    E  E   E    +E   E   E   Q    E   E   E
|---------------------------|------------------------------|
|---------------------------|------------------------------|
|-9-(9)-(9)-(9)--(9)(9)-(9)-|-(9)-(9)-(9)-(9)--(9)-(9)-(9)-|
|-5p=4---2---2----4h=5---4--|-(4)--2p==0---0----2h==4---4--|
|---------------------------|------------------------------|
|---------------------------|------------------------------|
|
| Gtr II
| E  E   E   Q    E  E   E    +E   E   E   Q    E   E   E
|---------------------------|------------------------------|
|-8-(8)-(8)-(8)--(8)(8)-(8)-|-(8)-(8)-(8)-(8)--(8)-(8)-(8)-|
|-4p=2------------2h=4---2--|-(2)--0----------------2---2--|
|--------5---5--------------|----------4---4----5----------|
|---------------------------|------------------------------|
|---------------------------|------------------------------|
|
| Gtr III
| E  E   E   Q    E  Q         E   E   E   Q    E   Q
|---------------------------|------------------------------|
|---------------------------|------------------------------|
|-9--9---9---9----9--9------|--7---7---7---7----7---7------|
|-9--9---9---9----9--9------|--7---7---7---7----7---7------|
|-7--7---7---7----7--7------|--5---5---5---5----5---5------|
|---------------------------|------------------------------|


  +E   E  E   E  +H          +W
|--------------------------|------------------|
|--------------------------|------------------|
|-(9)-(9)(9)-(9)-(9)-------|-(9)--------------|
|-(4)--5p=2---2--(2)-------|-(2)--------------|
|--------------------------|------------------|
|--------------------------|------------------|
|
| +E   E  E   E  +H          +W
|--------------------------|------------------|
|-(8)-(8)(8)-(8)-(8)-------|-(8)--------------|
|-(2)--4p=0---0--(0)-------|-(0)--------------|
|--------------------------|------------------|
|--------------------------|------------------|
|--------------------------|------------------|
|
|  E   E  E   Q      E E E   +E  E E Q  E Q
|--------------------------|------------------|
|--------------------------|------------------|
|--4---4--4---4------4-4-5-|-(5)-5-5-7--7-7---|
|--4---4--4---4------4-4-5-|-(5)-5-5-7--7-7---|
|--2---2--2---2------2-2-3-|-(3)-3-3-5--5-5---|
|--------------------------|------------------|


  Gtr I
  E E E Q  E E E   +E  E E Q  E E E
|----------------|------------------|
|----------------|------------------|
|----------------|------------------|
|-5p4-2-2--4h5-4-|-(4)-2p0-0--2h4-4-|
|----------------|------------------|
|----------------|------------------|
|
| Gtr II
| E E E Q  E E E   +E  E E Q  E E E
|----------------|------------------|
|----------------|------------------|
|-4p2------2h4-2-|-(2)-0--------2-2-|
|-----5-5--------|-------4-4--5-----|
|----------------|------------------|
|----------------|------------------|
|
| Gtr III
| E E E Q  E Q      E  E E Q  E Q
|----------------|------------------|
|----------------|------------------|
|-9-9-9-9--9-9---|--7--7-7-7--7-7---|
|-9-9-9-9--9-9---|--7--7-7-7--7-7---|
|-7-7-7-7--7-7---|--5--5-5-5--5-5---|
|----------------|------------------|


  +E  E E E +Q.     E   +E  T T S E E E E E E
|---------------------|-----------------------|
|---------------------|-----------------------|
|-------------------4-|-(4)-2h4p2---2-------4-|
|-(4)-5p2-2-(2)-------|-----------5---5-4-2---|
|---------------------|-----------------------|
|---------------------|-----------------------|
|
| +E  E E E +Q.     E   +E  T T S E E E E E E
|---------------------|-----------------------|
|---------------------|-----------------------|
|-(2)-4p0-0-(0)-----4-|-(4)-2h4p2---2-------7-|
|---------------------|-----------5---5-4-2---|
|---------------------|-----------------------|
|---------------------|-----------------------|
|
|                                       PM|
|  E  E E Q     E E E    H            E E E E
|---------------------|-----------------------|
|---------------------|-----------------------|
|--4--4-4-4-----4-4-5-|---------------------7-|
|--4--4-4-4-----4-4-5-|-----------------5-5-7-|
|--2--2-2-2-----2-2-3-|-----------------3-3-5-|
|---------------------|-----------------------|


  Gtr I
  +E  T T S E E E E E E   +E  E E Q  E E E
|-----------------------|------------------|
|-----------------------|------------------|
|-(4)-2h4p2---2---------|------------------|
|-----------5---5-4-2-8-|-(8)-7-5-5--7h8-7-|
|-----------------------|------------------|
|-----------------------|------------------|
|
| Gtr II
| +E  T T S E E E E E E   +E  E E Q  E E E
|-----------------------|------------------|
|-----------------------|------------------|
|-(7)-5h7p5---5-------7-|-(7)-5------5h7-5-|
|-----------8---8-7-5---|-------8-8--------|
|-----------------------|------------------|
|-----------------------|------------------|
|
| Gtr III
|  H.               E E   +E  E E Q  E Q
|-----------------------|------------------|
|-----------------------|------------------|
|---------------------7-|-(7)-7-7-7--7-7---|
|---------------------5-|-(5)-5-5-5--5-5---|
|-----------------------|------------------|
|-----------------------|------------------|


  +E  E E Q  E E E   +E  E E H      E
|------------------|------------------|
|------------------|------------------|
|------------------|----------------7-|
|-(7)-5------5h7-7-|-(7)-8p5-5--------|
|-------8-8--------|------------------|
|------------------|------------------|
|
| +E  E E Q  E E E   +E  E E H      E
|------------------|------------------|
|------------------|----------------6-|
|-(5)----------5-5-|-(5)-7------------|
|-----8p7-7--8-----|-------8-8--------|
|------------------|------------------|
|------------------|------------------|
|
|  E  E E Q  E Q      E  E E Q  E E E
|------------------|------------------|
|------------------|------------------|
|--5--5-5-5--5-5---|--7--7-7-7--7-7-8-|
|--3--3-3-3--3-3---|--7--7-7-7--7-7-8-|
|------------------|--5--5-5-5--5-5-6-|
|------------------|------------------|


  Gtr I
  +E  T T S E E E E E E    E E E Q  E E E
|-----------------------|-----------------|
|-----------------------|-----------------|
|-(7)-5h7p5---5---------|---------------5-|
|-----------8---8-7-5-7-|--8-7-5-5--7h8---|
|-----------------------|-----------------|
|-----------------------|-----------------|
|
| Gtr II
| +E  T T S E E E E E E    E E E Q  E E E
|-----------------------|-----------------|
|-(6)-4h6p4---4---------|-----------------|
|-----------7---7-5-3-5-|-/7-5------5h7-8-|
|-----------------------|------8-8--------|
|-----------------------|-----------------|
|-----------------------|-----------------|
|
| Gtr III
| +E  E     E Q   E Q      E E E Q  E Q
|-----------------------|-----------------|
|-----------------------|-----------------|
|-(8)-8-----8-5---5-5---|--7-7-7-7--7-7---|
|-(8)-8-----8-3---3-3---|--5-5-5-5--5-5---|
|-(6)-6-----6-----------|-----------------|
|-----------------------|-----------------|


                                          ~~
  +E    E  E  Q   E  E  E    +E   E    E  H        +E
|-------------------------|----------------------------|
|-------------------------|----------------------------|
|-(5)---------------------|----------------------------|
|-------8--7------5h=7--7-|--(7)--8p===5--5--------(5)-|
|-------------8-----------|----------------------------|
|-------------------------|----------------------------|
|
| +E    E  E  Q   E  E  E    +E   Q       Q   E  E  E
|-------------------------|----------------------------|
|-----/10-10-10--11-13-13-|-(13)-13b15r==11------------|
|-(8)---------------------|------------------10-12-10--|
|-------------------------|----------------------------|
|-------------------------|----------------------------|
|-------------------------|----------------------------|
|
|  E    E  E  Q   E  Q        E   E    E  Q   E  E  E
|-------------------------|----------------------------|
|-------------------------|----------------------------|
|--5----5--5--5---5--5----|---7---7----7--7---7--7--8--|
|--3----3--3--3---3--3----|---7---7----7--7---7--7--8--|
|-------------------------|---5---5----5--5---5--5--6--|
|-------------------------|----------------------------|


  Gtr I
    W                  H           H             H           E E   E E
|------------------||--------------------------|--------------------------|
|------------------||o-------------------------|--------------------------|
|------------------||--------------------------|-4-----------4-2-----4----|
|---5--------------||--2-----------5-----------|-------------------5------|
|------------------||o-------------------------|--------------------------|
|------------------||--------------------------|--------------------------|
|
| Gtr II
|  +W                  H           H             H           E E   E E
|------------------||--------------------------|--------------------------|
|------------------||o-------------------------|--------------------------|
|-(10)-------------||--------------------------|-4-----------4-2-----4----|
|------------------||--2-----------5-----------|-------------------5------|
|------------------||o-------------------------|--------------------------|
|------------------||--------------------------|--------------------------|
|
| Gtr III
|                      PM----------------------------------------------|
|  +E  E E Q  E Q      E S S E S S E S S E S S   E S S E S S E S S E S S
|------------------||--------------------------|--------------------------|
|------------------||o-------------------------|--------------------------|
|--(8)-8-8-5--5-5--||--------------------------|--------------------------|
|--(8)-8-8-3--3-3--||--------------------------|--------------------------|
|--(6)-6-6---------||o-------------------------|--------------------------|
|------------------||--0-0-0-0-0-0-0-0-0-0-0-0-|-0-0-0-0-0-0-0-0-0-0-0-0--|


  Gtr I
  Q.       E   E +Q      E     Q.       E   E E   E E
|----------------------------|---------------------------||
|----------------------------|--------------------------o||
|----------2-------------2---|----------2-----4---2------||
|--------------4-(4)---------|--------------4-------4----||
|-5--------------------------|-5------------------------o||
|----------------------------|---------------------------||
|
| Gtr II
| Q.       E   E +Q      E     Q.       E   E E   E E
|----------------------------|---------------------------||
|----------------------------|--------------------------o||
|----------2-------------2---|----------2----------------||
|--------------4-(4)---------|--------------4-5---4------||
|-5--------------------------|-5--------------------5---o||
|----------------------------|---------------------------||
|
| Gtr III
| PM--------------------------------------------------|
| E  S S E S S E  S  S E S S   E  S S E S S E S S E S S
|----------------------------|---------------------------||
|----------------------------|--------------------------o||
|----------------------------|---------------------------||
|----------------------------|---------------------------||
|-0--0-0-0-0-0-0--0--0-0-0-0-|-0--0-0-0-0-0-0-0-0-0-0-0-o||
|----------------------------|---------------------------||


    Gtr I
    E E E Q  Q  E   +E   E E  E  E  E E  E
||----------------|------------------------|
||o---------------|------------------------|
||--5-5-5-5--7--9-|-(9)--------------------|
||--5-5-5-5--7--9-|-(9)----------7---------|
||o-3-3-3-3--5--7-|-(7)--7-9-10----10-9--7-|
||----------------|------------------------|
|
|   Gtr II
|   E E E Q  Q  E   +E   E E  E  E  E E  E
||----------------|------------------------|
||o---------------|------------------------|
||--5-5-5-5--7--9-|-(9)--------------------|
||--5-5-5-5--7--9-|-(9)----7--9-10--9-7----|
||o-3-3-3-3--5--7-|-(7)-10--------------10-|
||----------------|------------------------|
|
|   Gtr III
|   E E E Q  Q  E   +E   E E  E  E  E E  E
||----------------|------------------------|
||o---------------|------------------------|
||--5-5-5-5--7--9-|-(9)--9-9--9--9--9-9--9-|
||--5-5-5-5--7--9-|-(9)--9-9--9--9--9-9--9-|
||o-3-3-3-3--5--7-|-(7)--7-7--7--7--7-7--7-|
||----------------|------------------------|


 1.
  E E E Q  Q   E    +E   E  E  T T S  E  E  E  E
|----------------|---------------------------------||
|----------------|--------------------------------o||
|-5-5-5-5--7--12-|-(12)--7--5--4h5p4---------------||
|-5-5-5-5--7--12-|-(12)---------------7--5--4------||
|-3-3-3-3--5--10-|-(10)------------------------7--o||
|----------------|---------------------------------||
|
| E E E Q  Q   E    +E   E  E  E      E  E  E  E
|----------------|---------------------------------||
|----------------|--------------------------------o||
|-5-5-5-5--7--12-|-(12)----------------------------||
|-5-5-5-5--7--12-|-(12)--9--7----------------------||
|-3-3-3-3--5--10-|-(10)-------10------9--7--------o||
|----------------|-------------------------10--8---||
|
| E E E Q  Q   E    +E   E  E  E      E  E  E  E
|----------------|---------------------------------||
|----------------|--------------------------------o||
|-5-5-5-5--7--12-|-(12)-12-12-12-----12-12-12-12---||
|-5-5-5-5--7--12-|-(12)-12-12-12-----12-12-12-12---||
|-3-3-3-3--5--10-|-(10)-10-10-10-----10-10-10-10--o||
|----------------|---------------------------------||


  2.
                                  D.S.S. al Coda
  Gtr I
                        PM--------------------|
  E E E Q  Q  E   +E  E S S S S S S S S S S S S
|---------------|--------------------------------|
|---------------|--------------------------------|
|-5-5-5-5--7--4-|-(4)-4--------------------------|
|-5-5-5-5--7--4-|-(4)-4-4-4-4-4-5-5-5-5-7-7-7-7--|
|-3-3-3-3--5--2-|-(2)-2--------------------------|
|---------------|--------------------------------|
|
| Gtr II
|                       PM--------------------|
| E E E Q  Q  E   +E  E S S S S S S S S S S S S
|---------------|--------------------------------|
|---------------|--------------------------------|
|-5-5-5-5--7--4-|-(4)-4--------------------------|
|-5-5-5-5--7--4-|-(4)-4-1-1-1-1-2-2-2-2-4-4-4-4--|
|-3-3-3-3--5--2-|-(2)-2--------------------------|
|---------------|--------------------------------|
|
| Gtr III
|                       PM--------------------|
| E E E Q  Q  E   +E  E S S S S S S S S S S S S
|---------------|--------------------------------|
|---------------|--------------------------------|
|-5-5-5-5--7--4-|-(4)-4--------------------------|
|-5-5-5-5--7--4-|-(4)-4-4-4-4-4-4-4-4-4-4-4-4-4--|
|-3-3-3-3--5--2-|-(2)-2-2-2-2-2-2-2-2-2-2-2-2-2--|
|---------------|--------------------------------|


  &
  Gtr I
    PM|   PM  PM    PM--|   PM  PM
  E E E E E E E E   E E E E E E E E
|-----------------|-----------------|
|-----------------|-----------------|
|-------4---0-----|-----------------|
|-2-----4---2---5-|-------5---4---7-|
|-2-----2---3---7-|-------7---7---5-|
|-0-0-0---0---0---|-0-0-0---0---0---|
|
| Gtr II
|   PM|   PM  PM    PM--|   PM  PM
| E E E E E E E E   E E E E E E E E
|-----------------|-----------------|
|-----------------|-----------------|
|-------4---0-----|-----------------|
|-2-----4---2---5-|-------5---4---7-|
|-2-----2---3---7-|-------7---7---5-|
|-0-0-0---0---0---|-0-0-0---0---0---|
|
| Gtr III
| W                 W
|-----------------|-----------------|
|-----------------|-----------------|
|-----------------|-----------------|
|-----------------|-----------------|
|-----------------|-----------------|
|-----------------|-----------------|


  PM--|   PM   PM
  E E E E E  E E  E   +E  E     E E T T S E E E
|-------------------|---------------------------|
|-------------------|---------------------------|
|----------------/5-|-(5)-4-----2-4-2h4p2-0-----|
|-------7----5------|-----------------------4-0-|
|-------5----5------|---------------------------|
|-0-0-0---0----0----|---------------------------|
|
| PM--|   PM   PM
| E E E E E  E E  E   +E  T T S E E T T S E E E
|-------------------|---------------------------|
|----------------/5-|-(5)-3h5p3-1-3-1h3p1p0-----|
|-------------------|-----------------------2---|
|-------7----5------|-------------------------4-|
|-------5----5------|---------------------------|
|-0-0-0---0----0----|---------------------------|
|
|                               PM
| H       Q.      E   +E  E     E Q       E E E
|-------------------|---------------------------|
|-------------------|---------------------------|
|-----------------5-|-(5)-5-------7-------7-7-7-|
|-----------------5-|-(5)-5-------7-------7-7-7-|
|-----------------3-|-(3)-3-------5-------5-5-5-|
|-------------------|-----------0---------------|


  Gtr I
    PM|   PM  PM    PM--|   PM  PM    PM--|   PM   PM          PM
  E E E E E E E E   E E E E E E E E   E E E E E  E E E   +E  E E Q  E E E
|-----------------|-----------------|------------------|------------------|
|-----------------|-----------------|------------------|------------------|
|-------4---0-----|-----------------|------------------|----------------4-|
|-2-----4---2---5-|-------5---4---7-|-------7----5---5-|-(5)-5---7--5-7---|
|-2-----2---3---7-|-------7---7---5-|-------5----5---3-|-(3)-3---5--------|
|-0-0-0---0---0---|-0-0-0---0---0---|-0-0-0---0----0---|-------0----------|
|
| Gtr II
|   PM|   PM  PM    PM--|   PM  PM    PM--|   PM   PM          PM
| E E E E E E E E   E E E E E E E E   E E E E E  E E E   +E  E E Q  E E E
|-----------------|-----------------|------------------|------------------|
|-----------------|-----------------|------------------|------------------|
|-------4---0-----|-----------------|------------------|------------------|
|-2-----4---2---5-|-------5---4---7-|-------7----5---5-|-(5)-5---7----4-5-|
|-2-----2---3---7-|-------7---7---5-|-------5----5---3-|-(3)-3---5--7-----|
|-0-0-0---0---0---|-0-0-0---0---0---|-0-0-0---0----0---|-------0----------|
|
| Gtr III
|                                                              PM
| W                 W                 H       Q.     E   +E  E E Q  E E E
|-----------------|-----------------|------------------|------------------|
|-----------------|-----------------|------------------|------------------|
|-----------------|-----------------|----------------5-|-(5)-5---7--7-7-7-|
|-----------------|-----------------|----------------5-|-(5)-5---7--7-7-7-|
|-----------------|-----------------|----------------3-|-(3)-3---5--5-5-5-|
|-----------------|-----------------|------------------|-------0----------|


  Gtr I
  Q.   Q  Q  E
|-----------------*|
|-----------------*|
|-----------------*|
|------2--2-------*|
|------2--2-------*|
|------0--0-------*|
|
| Gtr II
| Q.   Q  Q  E
|-----------------*|
|-----------------*|
|-----------------*|
|------9--9-------*|
|------7--7-------*|
|------0--0-------*|





Comments


Popular In Flames tabs & chords
Dialogue With The Stars 1 Bass Tabs
Dialogue With The Stars 2 Bass Tabs
Satelites And Astronauts Bass Tabs
Man Made God Drum Tabs
Acoustic Medley 2 Tabs
Come Clarity 6 Tabs
Dialog With The Stars Tabs
Jotun 2 Tabs
Scream 1 Tabs
Where The Dead Ships Dwell Tabs


Song lyrics



↑ Back to top | Tablatures and chords are parodies/interpretations of the original songs. You may use it for private study, scholarship, research or language learning purposes only
© 2014 AZChords.com Contact us | Privacy policy | DMCA | Add/correct tabs | Request tabs | Top 50 tabs