» » »

In Flames, Alias Tabs (ver.1)

Artists:  A B C D E F G H I J K L M N O P Q R S T U V W X Y Z # 

Alias Tabs (ver.1)

In Flames Tabs
 Rating:
4.3/5 (6 votes)
Alias lessons Tabs too difficult? Try these video lessons and learn fast
1
                (Intro)
I'm new to the whole drop A# but after listening to these guys enough. I've gotten used 
what frets they play on and the major scales they use.

Drop A#,F,A#,D#,G,C


Guitar 1
--------------------------------------------------------------------|
--------------------------------------------------------------------|
--------------------------------------------------------------------|
-----7h8p7-------5---2---2-3-5-7-----7h8p7-------5---2---7-5-3-2----|  x4
-------------8-------------------------------8----------------------|
-0-0-------0---0---0---0---------0-0-------0---0---0---0------------|

Guitar 2 Part 1
----------------------------------------------------------------|
----------------------------------------------------------------|
----------------------------------------------------------------|
-0-0---------0---0-0-----2-3-5-7-0-0---------0---3~5~-----------|  x2
-0-0---------0---0-0-------------0-0---------0---3~5~-----------|
-0-0---------0---0-0-------------0-0---------0---3~5~-----------|

Part 2
----------------------------------------------------------------|
----------------------------------------------------------------|
----------------------------------------------------------------|
-8-8---------8-8--8-7~-----------8-8---------8---8~10~----------|  x1
-8-8---------8-8--8-7~-----------8-8---------8---8~10~----------|
-8-8---------8-8--8-7~-----------8-8---------8---8~10~----------|

Back To Part 1 |x1
            
Submit corrections

comments powered by Disqus
↑ Back to top | In Flames Tabs for Alias. Lyrics for acoustic guitar and electric guitar. 1 Tablatures and chords are parodies/interpretations of the original songs. You may use it for private study, scholarship, research or language learning purposes only