>
 >
Alias 1

Alias 1 Guitar Tabs

In Flames - Alias 1 chords, tabs, tablatures, lyrics

Guitar lessons | Add/correct | Request | Top 50 tabs Artists:  A B C D E F G H I J K L M N O P Q R S T U V W X Y Z 0-9

Alias 1 Guitar Tabs – In Flames

CD, Sheet music, Poster

Do you like Alias 1? Share with your friends now
Bass TabsTabsTabs v2
Guitar 1
C------------------------------------------------------------------------|
G------------------------------------------------------------------------|
D#-----------------------------------------------------------------------|
A#-----7-8-7------------------------------7-8-7--------------------------|
F--------------8---10---7---7-8-10-12-------------8---10---7---12-10-8-7-|
A#-0-0-------0---0----0---0-----------0-0-------0---0----0---0-----------|

Guitar 2
C-----------------------------------------------------------------------|
G-----------------------------------------------------------------------|
D#----------------------------------------------------------------------|
A#-------------------------2-3-5-7--------------------------------------|
F--0-0----------0----0-0---3-5-7-8---0-0------------0----3~---5~--------|
A#-0-0----------0----0-0-------------0-0------------0----3~---5~--------|


Guitar 1
C------------------------------------------------------------------------|
G------------------------------------------------------------------------|
D#-----------------------------------------------------------------------|
A#-----7-8-7------------------------------7-8-7--------------------------|
F--------------8---10---7---7-8-10-12-------------8---10---7---12-10-8-7-|
A#-0-0-------0---0----0---0-----------0-0-------0---0----0---0-----------|


Guitar 2
C-----------------------------------------------------------------------|
G-----------------------------------------------------------------------|
D#----------------------------------------------------------------------|
A#----------------------------------------------------------------------|
F--8-8-------------8---8-8-7~---------8-8------------8---8~---10~-------|
A#-8-8-------------8---8-8-7~---------8-8------------8---8~---10~-------|

Guitar 1
C-----------------------------------------------------------------------|
G--6-----6-----8---10-----10-----6-8-10-----10-----8-10-----10-6-8------|
D#-7-----7-----9---10-----10-----7-9-10-----10-----9-10-----10-7-9------|
A#-0-0-0-0-0-0-0-0-0--0-0-0--0-0-----0--0-0-0--0-0-0-0--0-0-0-----------|
F-----------------------------------------------------------------------|
A#----------------------------------------------------------------------|

Guitar 1
C-----------------------------------------------------------------------|
G-----------------------------------------------------------------------|
D#-9---10--12--10--9---10--9---10--12--10--9---7------------------------|
A#-10--12--14--12--10--12--10--12--14--12--10--8------------------------|
F-----------------------------------------------------------------------|
A#----------------------------------------------------------------------|

Guitar 2
C-----------------------------------------------------------------------|
G-----------------------------------------------------------------------|
D#----------------------------------------------------------------------|
A#----------------------------------------------------------------------|
F---8--8--8------8--8----8--8--8------8--8------------------------------|
A#--8--8--8------8--8----8--8--8------8--8------------------------------|

Guitar 1
C-----------------------------------------------------------------------|
G--6-----6-----8---10-----10-----6-8-10-----10-----8-10-----10-6-8------|
D#-7-----7-----9---10-----10-----7-9-10-----10-----9-10-----10-7-9------|
A#-0-0-0-0-0-0-0-0-0--0-0-0--0-0-----0--0-0-0--0-0-0-0--0-0-0-----------|
F-----------------------------------------------------------------------|
A#----------------------------------------------------------------------|

Guitar 1
C-----------------------------------------------------------------------|
G-----------------------------------------------------------------------|
D#-9---10--12--10--9---10--9---10--12--10--9---7------------------------|
A#-10--12--14--12--10--12--10--12--14--12--10--8------------------------|
F-----------------------------------------------------------------------|
A#----------------------------------------------------------------------|

Guitar 2
C-----------------------------------------------------------------------|
G-----------------------------------------------------------------------|
D#----------------------------------------------------------------------|
A#----------------------------------------------------------------------|
F---8--8--8------8--8----8--8--8------8--8------------------------------|
A#--8--8--8------8--8----8--8--8------8--8------------------------------|

Guitar 1
C------------------------------------------------------------------------|
G------------------------------------------------------------------------|
D#-7---10---7---12---7---10---7---5---7---10---7---12---7---10---7~------|
A#-8---12---8---14---8---12---8---7---8---12---8---14---8---12---8~------|
F------------------------------------------------------------------------|
A#-----------------------------------------------------------------------|

Guitar 2
C------------------------------------------------------------------------|
G------------------------------------------------------------------------|
D#-----------------------------------------------------------------------|
A#-----------------------------------------------------------------------|
F------------------5-5-5-5-5-5-5-5---------------------------------------|
A#-5-5-5-5-5-5-5-5-----------------5-5-5-5-5-5-5-5-8-8-8-8-10-10-10-10---|

Guitar 1
C------------------------------------------------------------------------|
G------------------------------------------------------------------------|
D#-----------------------------------------------------------------------|
A#-----7-8-7------------------------------7-8-7--------------------------|
F--------------8---10---7---7-8-10-12-------------8---10---7---12-10-8-7-|
A#-0-0-------0---0----0---0-----------0-0-------0---0----0---0-----------|

Guitar 2
C-----------------------------------------------------------------------|
G-----------------------------------------------------------------------|
D#----------------------------------------------------------------------|
A#-------------------------2-3-5-7--------------------------------------|
F--0-0----------0----0-0---3-5-7-8---0-0------------0----3~---5~--------|
A#-0-0----------0----0-0-------------0-0------------0----3~---5~--------|


Guitar 1
C------------------------------------------------------------------------|
G------------------------------------------------------------------------|
D#-----------------------------------------------------------------------|
A#-----7-8-7------------------------------7-8-7--------------------------|
F--------------8---10---7---7-8-10-12-------------8---10---7---12-10-8-7-|
A#-0-0-------0---0----0---0-----------0-0-------0---0----0---0-----------|


Guitar 2
C-----------------------------------------------------------------------|
G-----------------------------------------------------------------------|
D#----------------------------------------------------------------------|
A#----------------------------------------------------------------------|
F--8-8-------------8---8-8-7~---------8-8------------8---8~---10~-------|
A#-8-8-------------8---8-8-7~---------8-8------------8---8~---10~-------|

Guitar 1
C----------------------------------------------------------------------|
G----------------------------------------------------------------------|
D#---------------------------------------------------------------------|
A#--7-5-7--7-5-7--7-5-7--7-5-7--5-3-5--5-3-5--5-3-5--5-3-5--5-3-5------|
F----------------------------------------------------------------------|
A#-0------0------0------0------0------0------0------0------0-----------|

Guitar 2
C----------------------------------------------------------------------|
G----------------------------------------------------------------------|
D#---------------------------------------------------------------------|
A#---------------------------------------------------------------------|
F--8-8-8-8-8-8-8-8-8-8-8-8-8-8-8-8-5-5-5-5-5-5-5-5-5-5-5-5-5-5-5-5-----|
A#-8-8-8-8-8-8-8-8-8-8-8-8-8-8-8-8-5-5-5-5-5-5-5-5-5-5-5-5-5-5-5-5-----|

Guitar 1
C-----------------------------------------------------------------------|
G--6-----6-----8---10-----10-----6-8-10-----10-----8-10-----10-6-8------|
D#-7-----7-----9---10-----10-----7-9-10-----10-----9-10-----10-7-9------|
A#-0-0-0-0-0-0-0-0-0--0-0-0--0-0-----0--0-0-0--0-0-0-0--0-0-0-----------|
F-----------------------------------------------------------------------|
A#----------------------------------------------------------------------|

Guitar 1
C-----------------------------------------------------------------------|
G-----------------------------------------------------------------------|
D#-9---10--12--10--9---10--9---10--12--10--9---7------------------------|
A#-10--12--14--12--10--12--10--12--14--12--10--8------------------------|
F-----------------------------------------------------------------------|
A#----------------------------------------------------------------------|

Guitar 2
C-----------------------------------------------------------------------|
G-----------------------------------------------------------------------|
D#----------------------------------------------------------------------|
A#----------------------------------------------------------------------|
F---8--8--8------8--8----8--8--8------8--8------------------------------|
A#--8--8--8------8--8----8--8--8------8--8------------------------------|

Guitar 1
C-----------------------------------------------------------------------|
G--6-----6-----8---10-----10-----6-8-10-----10-----8-10-----10-6-8------|
D#-7-----7-----9---10-----10-----7-9-10-----10-----9-10-----10-7-9------|
A#-0-0-0-0-0-0-0-0-0--0-0-0--0-0-----0--0-0-0--0-0-0-0--0-0-0-----------|
F-----------------------------------------------------------------------|
A#----------------------------------------------------------------------|

Guitar 1
C-----------------------------------------------------------------------|
G-----------------------------------------------------------------------|
D#-9---10--12--10--9---10--9---10--12--10--9---7------------------------|
A#-10--12--14--12--10--12--10--12--14--12--10--8------------------------|
F-----------------------------------------------------------------------|
A#----------------------------------------------------------------------|

Guitar 2
C-----------------------------------------------------------------------|
G-----------------------------------------------------------------------|
D#----------------------------------------------------------------------|
A#----------------------------------------------------------------------|
F---8--8--8------8--8----8--8--8------8--8------------------------------|
A#--8--8--8------8--8----8--8--8------8--8------------------------------|

Guitar 1
C------------------------------------------------------------------------|
G------------------------------------------------------------------------|
D#-7---10---7---12---7---10---7---5---7---10---7---12---7---10---7~------|
A#-8---12---8---14---8---12---8---7---8---12---8---14---8---12---8~------|
F------------------------------------------------------------------------|
A#-----------------------------------------------------------------------|

Guitar 2
C------------------------------------------------------------------------|
G------------------------------------------------------------------------|
D#-----------------------------------------------------------------------|
A#-----------------------------------------------------------------------|
F------------------5-5-5-5-5-5-5-5---------------------------------------|
A#-5-5-5-5-5-5-5-5-----------------5-5-5-5-5-5-5-5-8-8-8-8-10-10-10-10---|

Guitar 1
C------------------------------------------------------------------------|
G------------------------------------------------------------------------|
D#-----------------------------------------------------------------------|
A#-----7-8-7------------------------------7-8-7--------------------------|
F--------------8---10---7---7-8-10-12-------------8---10---7---12-10-8-7-|
A#-0-0-------0---0----0---0-----------0-0-------0---0----0---0-----------|

Guitar 2
C-----------------------------------------------------------------------|
G-----------------------------------------------------------------------|
D#----------------------------------------------------------------------|
A#-------------------------2-3-5-7--------------------------------------|
F--0-0----------0----0-0---3-5-7-8---0-0------------0----3~---5~--------|
A#-0-0----------0----0-0-------------0-0------------0----3~---5~--------|


Guitar 1
C------------------------------------------------------------------------|
G------------------------------------------------------------------------|
D#-----------------------------------------------------------------------|
A#-----7-8-7------------------------------7-8-7--------------------------|
F--------------8---10---7---7-8-10-12-------------8---10---7---12-10-8-7-|
A#-0-0-------0---0----0---0-----------0-0-------0---0----0---0-----------|


Guitar 2
C-----------------------------------------------------------------------|
G-----------------------------------------------------------------------|
D#----------------------------------------------------------------------|
A#----------------------------------------------------------------------|
F--8-8-------------8---8-8-7~---------8-8------------8---8~---10~-------|
A#-8-8-------------8---8-8-7~---------8-8------------8---8~---10~-------|

Guitar 1
C----------------------------------------------------------------------|
G----------------------------------------------------------------------|
D#---------------------------------------------------------------------|
A#--7-5-7--7-5-7--7-5-7--7-5-7--5-3-5--5-3-5--5-3-5--5-3-5--5-3-5------|
F----------------------------------------------------------------------|
A#-0------0------0------0------0------0------0------0------0-----------|

Guitar 2
C----------------------------------------------------------------------|
G----------------------------------------------------------------------|
D#---------------------------------------------------------------------|
A#---------------------------------------------------------------------|
F--8-8-8-8-8-8-8-8-8-8-8-8-8-8-8-8-5-5-5-5-5-5-5-5-5-5-5-5-5-5-5-5-----|
A#-8-8-8-8-8-8-8-8-8-8-8-8-8-8-8-8-5-5-5-5-5-5-5-5-5-5-5-5-5-5-5-5-----|


Guitar 1
C----------------------------------------------------------------------|
G----------------------------------------------------------------------|
D#---------------------------------------------------------------------|
A#--7-5-7--7-5-7--7-5-7--7-5-7--5-3-5--5-3-5--5-3-5--5-3-5--5-3-5------|
F----------------------------------------------------------------------|
A#-0------0------0------0------0------0------0------0------0-----------|

Guitar 2
C----------------------------------------------------------------------|
G----------------------------------------------------------------------|
D#---------------------------------------------------------------------|
A#---------------------------------------------------------------------|
F--8-8-8-8-8-8-8-8-8-8-8-8-8-8-8-8-5-5-5-5-5-5-5-5-5-5-5-5-5-5-5-5-----|
A#-8-8-8-8-8-8-8-8-8-8-8-8-8-8-8-8-5-5-5-5-5-5-5-5-5-5-5-5-5-5-5-5-----|

Guitar 1
C----------------------------------------------------------------------|
G----------------------------------------------------------------------|
D#---------------------------------------------------------------------|
A#---5-3-5--5-3-5--7-5-7--7-5-7----------------------------------------|
F----------------------------------------------------------------------|
A#--0------0------0------0---------------------------------------------|

Guitar 2
C----------------------------------------------------------------------|
G----------------------------------------------------------------------|
D#---------------------------------------------------------------------|
A#---------------------------------------------------------------------|
F--10~------------12~--------------------------------------------------|
A#-10~------------12~--------------------------------------------------|

Acoustic Guitar 1
C----------------------------------------------------------------------|
G----10-6---8--------------10-6---15---13-11---------------------------|
D#---10-7---9-9------------10-7---15---14-12---------------------------|
A#-0------0---10-0-0-0-0-0------0----0---------------------------------|
F----------------------------------------------------------------------|
A#---------------------------------------------------------------------|

Acoustic Guitar 2
C----------------------------------------------------------------------|
G----------------------------------------------------------------------|
D#---2------0--------------0--3---3----2--0----------------------------|
A#-0----3-0---2--0-0-0-0-0------0----0---------------------------------|
F----------------------------------------------------------------------|
A#---------------------------------------------------------------------|

Acoustic Guitar 1
C-------------------------------------------------------------------------|
G-----------------------------10-11-10h11p10p8h10-8-6-8-6-5-6-5-3-5-------|
D#-10-10-9h10p9p7-9~-----9-10---------------------------------------------|
A#------------------------------------------------------------------------|
F-------------------------------------------------------------------------|
A#------------------------------------------------------------------------|

Acoustic Guitar 2
C--------------------------------------------------------------------------|
G------------5---------5---------------1--------5--------------------------|
D#----7------------7-----7---7-----3--------5------------------------------|
A#-------7-----------7-----7---------3--------5----------------------------|
F--5-----------5----------------1---------3--------------------------------|
A#-------------------------------------------------------------------------|

Acoustic Guitar 1 (Guitar 2 is playing the same as before)
C--------------------------------------------------------------------------|
G----------------------------------------------10----10-8h10p8-------------|
D#-10--10-9-10-------------------------------------------------10----------|
A#-------------7~-------7-10-10-10----8----7-------------------------------|
F--------------------------------------------------------------------------|
A#-------------------------------------------------------------------------|

the acoustic part is played twice and the second time there is a third guitar that is 
playing in harmony to guitar 1
and the acoustic guitar 1 is also the solo guitar after this part

Guitar 2 (while guitar 1 is playing the solo)
C----------------------------------------------------------------------|
G----------------------------------------------------------------------|
D#---------------------------------------------------------------------|
A#---------------------------------------------------------------------|
F--12--------------8-----10--------------------------------------------|
A#-12--------------8-----10--------------------------------------------|


Guitar 1
C-----------------------------------------------------------------------|
G--6-----6-----8---10-----10-----6-8-10-----10-----8-10-----10-6-8------|
D#-7-----7-----9---10-----10-----7-9-10-----10-----9-10-----10-7-9------|
A#-0-0-0-0-0-0-0-0-0--0-0-0--0-0-----0--0-0-0--0-0-0-0--0-0-0-----------|
F-----------------------------------------------------------------------|
A#----------------------------------------------------------------------|


Guitar 1
C------------------------------------------------------------------------|
G------------------------------------------------------------------------|
D#-7---10---7---12---7---10---7---5---7---10---7---12---7---10---7~------|
A#-8---12---8---14---8---12---8---7---8---12---8---14---8---12---8~------|
F------------------------------------------------------------------------|
A#-----------------------------------------------------------------------|

Guitar 2
C------------------------------------------------------------------------|
G------------------------------------------------------------------------|
D#-----------------------------------------------------------------------|
A#-----------------------------------------------------------------------|
F------------------5-5-5-5-5-5-5-5---------------------------------------|
A#-5-5-5-5-5-5-5-5-----------------5-5-5-5-5-5-5-5-8-8-8-8-10-10-10-10---|


Guitar 1
C------------------------------------------------------------------------|
G------------------------------------------------------------------------|
D#-----------------------------------------------------------------------|
A#-----7-8-7------------------------------7-8-7--------------------------|
F--------------8---10---7---7-8-10-12-------------8---10---7---12-10-8-7-|
A#-0-0-------0---0----0---0-----------0-0-------0---0----0---0-----------|

Guitar 2
C-----------------------------------------------------------------------|
G-----------------------------------------------------------------------|
D#----------------------------------------------------------------------|
A#-------------------------2-3-5-7--------------------------------------|
F--0-0----------0----0-0---3-5-7-8---0-0------------0----3~---5~--------|
A#-0-0----------0----0-0-------------0-0------------0----3~---5~--------|


Guitar 1
C------------------------------------------------------------------------|
G------------------------------------------------------------------------|
D#-----------------------------------------------------------------------|
A#-----7-8-7------------------------------7-8-7--------------------------|
F--------------8---10---7---7-8-10-12-------------8---10---7---12-10-8-7-|
A#-0-0-------0---0----0---0-----------0-0-------0---0----0---0-----------|


Guitar 2
C-----------------------------------------------------------------------|
G-----------------------------------------------------------------------|
D#----------------------------------------------------------------------|
A#----------------------------------------------------------------------|
F--8-8-------------8---8-8-7~---------8-8------------8---8~---10~-------|
A#-8-8-------------8---8-8-7~---------8-8------------8---8~---10~-------|

Guitar 1
C----------------------------------------------------------------------|
G----------------------------------------------------------------------|
D#---------------------------------------------------------------------|
A#--7-5-7--7-5-7--7-5-7--7-5-7--5-3-5--5-3-5--5-3-5--5-3-5--5-3-5------|
F----------------------------------------------------------------------|
A#-0------0------0------0------0------0------0------0------0-----------|

Guitar 2
C----------------------------------------------------------------------|
G----------------------------------------------------------------------|
D#---------------------------------------------------------------------|
A#---------------------------------------------------------------------|
F--8-8-8-8-8-8-8-8-8-8-8-8-8-8-8-8-5-5-5-5-5-5-5-5-5-5-5-5-5-5-5-5-----|
A#-8-8-8-8-8-8-8-8-8-8-8-8-8-8-8-8-5-5-5-5-5-5-5-5-5-5-5-5-5-5-5-5-----|


Guitar 1
C----------------------------------------------------------------------|
G----------------------------------------------------------------------|
D#---------------------------------------------------------------------|
A#--7-5-7--7-5-7--7-5-7--7-5-7--5-3-5--5-3-5--5-3-5--5-3-5--5-3-5------|
F----------------------------------------------------------------------|
A#-0------0------0------0------0------0------0------0------0-----------|

Guitar 2
C----------------------------------------------------------------------|
G----------------------------------------------------------------------|
D#---------------------------------------------------------------------|
A#---------------------------------------------------------------------|
F--8-8-8-8-8-8-8-8-8-8-8-8-8-8-8-8-5-5-5-5-5-5-5-5-5-5-5-5-5-5-5-5-----|
A#-8-8-8-8-8-8-8-8-8-8-8-8-8-8-8-8-5-5-5-5-5-5-5-5-5-5-5-5-5-5-5-5-----|

Guitar 1
C----------------------------------------------------------------------|
G----------------------------------------------------------------------|
D#---------------------------------------------------------------------|
A#---5-3-5--5-3-5--7-5-7--7-5-7----------------------------------------|
F----------------------------------------------------------------------|
A#--0------0------0------0---------------------------------------------|

Guitar 2
C----------------------------------------------------------------------|
G----------------------------------------------------------------------|
D#---------------------------------------------------------------------|
A#---------------------------------------------------------------------|
F--10~------------12~--------------------------------------------------|
A#-10~------------12~--------------------------------------------------|





Comments


Popular In Flames tabs & chords
Gyroscope Bass Tabs
Take This Life Bass Tabs
Bullet Ride 1 Tabs
Bullet Ride 2 Tabs
Delight And Angers Tabs
Dialog With The Stars Tabs
Im The Highway Intro Tabs
Pacing Deaths Trail Tabs
Scream 1 Tabs
Trigger 1 Tabs


Song lyrics



↑ Back to top | Tablatures and chords are parodies/interpretations of the original songs. You may use it for private study, scholarship, research or language learning purposes only
© 2014 AZChords.com Contact us | Privacy policy | DMCA | Add/correct tabs | Request tabs | Top 50 tabs