>
 >
Alias

Alias Bass Tabs

In Flames - Alias chords, tabs, tablatures, lyrics

Guitar lessons | Add/correct | Request | Top 50 tabs Artists:  A B C D E F G H I J K L M N O P Q R S T U V W X Y Z 0-9

Alias Bass Tabs – In Flames

CD, Sheet music, Poster

Do you like Alias? Share with your friends now
Bass TabsTabsTabs v2
Tempo = 170
Electric Bass

Legend
L - tied note
x - dead note
h - hammer on/pull off
b - bend
s - slide
~ - vibrato
g - ghost note
> - accentuated note
t - trill
M - palm mute
. - staccato
P - popping (bass)
S - slapping (bass)
+ - tapping
W - wide vibrato
< - fade in
w - whammy bar
= - tremolo picking
v - brush up
^ - brush down
V - pick stroke up
n - pick stroke down


D#|----------------|----------------------------|----------------------------|
A#|----------------|----------------------------|--------------------2h-3----|
F |----------------|----------------------------|--------------3h-5----------|
A#|----------------|--0--0--------------0-------|--0--0----------------------|


----------------------------|----------------------------|
----------------------------|----------------------------|
----------------------------|----------------------------|
--0--0--------------0-------|--3--3--3--3--5--5--5--5----|


----------------------------|----------------------------|
----------------------------|--------------------2h-3----|
----------------------------|--------------3h-5----------|
--0--0--------------0-------|--0--0----------------------|


----------------------------|----------------------------|
----------------------------|----------------------------|
----------------------------|----------------------------|
--0--0--------------0-------|--3--3--3--3--5--5--5--5----|


----------------------------|----------------|----------------------------|
----------------------------|----------------|----------------------------|
--1--1-----------------1----|--1--1--0--0----|--1--1--------------1-------|
----------------------------|----------------|----------------------------|


----------------------------|----------------------------|
----------------------------|----------------------------|
--1--1--1--1--3--3--3--3----|--------------------5-------|
----------------------------|--0--0----------------------|


----------------------------|----------------------------|
--------------------2h-3----|----------------------------|
--------------3h-5----------|----------------------------|
--0--0----------------------|--0--0--------------0-------|


----------------------------|----|----|----|----------------|
----------------------------|----|----|----|----------------|
----------------------------|----|----|----|-----------7s---|
--3--3--3--3--5--5--5--5----|----|----|----|----------------|


----------------------------|----------------------------|
----------------------------|----------------------------|
--3--3--3--3--3--3--3--3----|--3--3--3--3--3--3--3--3----|
----------------------------|----------------------------|


----------------------------|----------------|----------------------------|
--2--------3--------5L------|--5--3--2--3----|----------------------------|
--------3--------3----------|----------------|----------------------------|
----------------------------|----------------|--0--0----------------------|


----------------------------|----------------------------|
----------------------------|----------------------------|
----------------------------|----------------------------|
--0--0----------------------|--0--0----------------------|


----------------------------|----------------------------|
----------------------------|----------------------------|
----------------------------|--3--3--3--3--3--3--3--3----|
--0--0----------------------|----------------------------|


----------------------------|----------------------------|----------------|
----------------------------|--2--------3--------5L------|--5--3--2--3----|
--3--3--3--3--3--3--3--3----|--------3--------3----------|----------------|
----------------------------|----------------------------|----------------|


----------------|----------------|----------------|----------------|
----------------|----------------|----------------|----------------|
----------------|----------------|--5--5--5--5----|--5--5--5--5----|
--5--5--5--5----|--5--5--5--5----|----------------|----------------|


----------------|----------------|----------------|----------------|
----------------|----------------|----------------|----------------|
----------------|--1--1--1--1----|--3--3--3--3----|--4--4--4--4----|
--5--5--5--5----|----------------|----------------|----------------|


----------------------------|----------------------------|
----------------------------|--------------------2h-3----|
----------------------------|--------------3h-5----------|
--0--0--------------0-------|--0--0----------------------|


----------------------------|----------------------------|
----------------------------|----------------------------|
----------------------------|----------------------------|
--0--0--------------0-------|--3--3--3--3--5--5--5--5----|


----------------------------|----------------------------|
----------------------------|--------------------2h-3----|
----------------------------|--------------3h-5----------|
--0--0--------------0-------|--0--0----------------------|


----------------------------|----------------------------|
----------------------------|----------------------------|
----------------------------|----------------------------|
--0--0--------------0-------|--3--3--3--3--5--5--5--5----|


----------------------------|----------------|----------------------------|
----------------------------|----------------|----------------------------|
--1--1-----------------1----|--1--1--0--0----|--1--1--------------1-------|
----------------------------|----------------|----------------------------|


----------------------------|----------------------------|
----------------------------|----------------------------|
--1--1--1--1--3--3--3--3----|--------------------5-------|
----------------------------|--0--0----------------------|


----------------------------|----------------------------|
--------------------2h-3----|----------------------------|
--------------3h-5----------|----------------------------|
--0--0----------------------|--0--0--------------0-------|


----------------------------|----------------------------|
----------------------------|----------------------------|
----------------------------|----------------------------|
--3--3--3--3--5--5--5--5----|--8--8--8--8--8--8--8--8----|


----------------------------|----------------------------|
----------------------------|----------------------------|
----------------------------|----------------------------|
--8--8--8--8--8--8--8--8----|--5--5--5--5--5--5--5--5----|


----------------------------|----|----|----|----------------|
----------------------------|----|----|----|----------------|
----------------------------|----|----|----|-----------7s---|
--5--5--5--5--5--5--5--5----|----|----|----|----------------|


----------------------------|----------------------------|
----------------------------|----------------------------|
--3--3--3--3--3--3--3--3----|--3--3--3--3--3--3--3--3----|
----------------------------|----------------------------|


----------------------------|----------------|----------------------------|
--2--------3--------5L------|--5--3--2--3----|----------------------------|
--------3--------3----------|----------------|----------------------------|
----------------------------|----------------|--0--0----------------------|


----------------------------|----------------------------|----|
----------------------------|----------------------------|----|
----------------------------|----------------------------|----|
--0--0----------------------|--0--0-----------0--0--0----|----|


----------------------------|----------------------------|
----------------------------|----------------------------|
--3--3--3--3--3--3--3--3----|--3--3--3--3--3--3--3--3----|
----------------------------|----------------------------|


----------------------------|----------------|----------------|----------------|
--2--------3--------5L------|--5--3--2--3----|----------------|----------------|
--------3--------3----------|----------------|----------------|----------------|
----------------------------|----------------|--5--5--5--5----|--5--5--5--5----|


----------------|----------------|----------------|----------------|
----------------|----------------|----------------|----------------|
--5--5--5--5----|--5--5--5--5----|----------------|--1--1--1--1----|
----------------|----------------|--5--5--5--5----|----------------|


----------------|----------------|----------------------------|
----------------|----------------|----------------------------|
--3--3--3--3----|--4--4--4--4----|----------------------------|
----------------|----------------|--0--0--------------0-------|


----------------------------|----------------------------|
--------------------2h-3----|----------------------------|
--------------3h-5----------|----------------------------|
--0--0----------------------|--0--0--------------0-------|


----------------------------|----------------------------|
----------------------------|----------------------------|
----------------------------|----------------------------|
--3--3--3--3--5--5--5--5----|--0--0--------------0-------|


----------------------------|----------------------------|
--------------------2h-3----|----------------------------|
--------------3h-5----------|----------------------------|
--0--0----------------------|--0--0--------------0-------|


----------------------------|----------------------------|----------------|
----------------------------|----------------------------|----------------|
----------------------------|--1--1-----------------1----|--1--1--0--0----|
--3--3--3--3--5--5--5--5----|----------------------------|----------------|


----------------------------|----------------------------|
----------------------------|----------------------------|
--1--1--------------1-------|--1--1--1--1--3--3--3--3----|
----------------------------|----------------------------|


----------------------------|----------------------------|
----------------------------|--------------------2h-3----|
--------------------5-------|--------------3h-5----------|
--0--0----------------------|--0--0----------------------|


----------------------------|----------------------------|
----------------------------|----------------------------|
----------------------------|----------------------------|
--0--0--------------0-------|--3--3--3--3--5--5--5--5----|


----------------------------|----------------------------|
----------------------------|----------------------------|
----------------------------|----------------------------|
--8--8--8--8--8--8--8--8----|--8--8--8--8--8--8--8--8----|


----------------------------|----------------------------|
----------------------------|----------------------------|
----------------------------|----------------------------|
--5--5--5--5--5--5--5--5----|--5--5--5--5--5--5--5--5----|


----------------------------|----------------------------|
----------------------------|----------------------------|
----------------------------|----------------------------|
--8--8--8--8--8--8--8--8----|--8--8--8--8--8--8--8--8----|


----------------------------|----------------------------|-------|-------|
----------------------------|----------------------------|-------|-------|
--3--3--3--3--3--3--3--3----|--4--4--4--4--4--4--4--4----|--5L---|--5L---|
----------------------------|----------------------------|-------|-------|


-------|-------|-------|-------|-------|-------|----|----|----|----|----|----|
-------|-------|-------|-------|-------|-------|----|----|----|----|----|----|
--5L---|--5L---|--5L---|--5L---|--5L---|--5----|----|----|----|----|----|----|
-------|-------|-------|-------|-------|-------|----|----|----|----|----|----|


----|----|----|----|----|----|----|----|----|----|----|----|----|----|----|----|
----|----|----|----|----|----|----|----|----|----|----|----|----|----|----|----|
----|----|----|----|----|----|----|----|----|----|----|----|----|----|----|----|
----|----|----|----|----|----|----|----|----|----|----|----|----|----|----|----|


----|----|----------------------------|----------------|
----|----|-----------3--2--0----------|----------------|
----|----|--5-----------------3L------|--3--3--3--3----|
----|----|----------------------------|----------------|


----------------------------|----------------------------|
----------------------------|--3--3--3--3--2--2--2--2----|
--1--------1--1--1--1--1----|----------------------------|
----------------------------|----------------------------|


----------------------------|----------------|----------------------------|
-----------3--2--0----------|----------------|----------------------------|
--5-----------------3L------|--3--3--3--3----|--1--------1--1--1--1--1----|
----------------------------|----------------|----------------------------|


----------------------------|----------------------------|----------------|
----------------------------|-----------3--2--0----------|----------------|
----------------------------|--5-----------------3L------|--3--3--3--3----|
--3--3--3--3--5--5--5--5----|----------------------------|----------------|


----------------------------|----------------------------|
----------------------------|--3--3--3--3--2--2--2--2----|
--1--------1--1--1--1--1----|----------------------------|
----------------------------|----------------------------|


----------------------------|----------------|----------------------------|
-----------3--2--0----------|----------------|----------------------------|
--5-----------------3L------|--3--3--3--3----|--1--------1--1--1--1--1----|
----------------------------|----------------|----------------------------|


----------------------------|----|----|----------------------------|
----------------------------|----|----|----------------------------|
----------------------------|----|----|----------------------------|
--3--3--3--3--5--5--5--5----|----|----|--0--0----------------------|


----------------------------|----------------|----------------|----------------|
----------------------------|----------------|----------------|----------------|
----------------------------|----------------|----------------|--5--5--5--5----|
--------------------5--7----|--5--5--5--5----|--5--5--5--5----|----------------|


----------------|----------------|----------------|----------------|
----------------|----------------|----------------|----------------|
--5--5--5--5----|----------------|--1--1--1--1----|--3--3--3--3----|
----------------|--5--5--5--5----|----------------|----------------|


----------------|----------------------------|----------------------------|
----------------|----------------------------|--------------------2h-3----|
--4--4--4--4----|----------------------------|--------------3h-5----------|
----------------|--0--0--------------0-------|--0--0----------------------|


----------------------------|----------------------------|
----------------------------|----------------------------|
----------------------------|----------------------------|
--0--0--------------0-------|--3--3--3--3--5--5--5--5----|


----------------------------|----------------------------|
----------------------------|--------------------2h-3----|
----------------------------|--------------3h-5----------|
--0--0--------------0-------|--0--0----------------------|


----------------------------|----------------------------|
----------------------------|----------------------------|
----------------------------|----------------------------|
--0--0--------------0-------|--3--3--3--3--5--5--5--5----|


----------------------------|----------------|----------------------------|
----------------------------|----------------|----------------------------|
--1--1-----------------1----|--1--1--0--0----|--1--1--------------1-------|
----------------------------|----------------|----------------------------|


----------------------------|----------------------------|
----------------------------|----------------------------|
--1--1--1--1--3--3--3--3----|--------------------5-------|
----------------------------|--0--0----------------------|


----------------------------|----------------------------|
--------------------2h-3----|----------------------------|
--------------3h-5----------|----------------------------|
--0--0----------------------|--0--0--------------0-------|


----------------------------|----------------------------|
----------------------------|----------------------------|
----------------------------|----------------------------|
--3--3--3--3--5--5--5--5----|--8--8--8--8--8--8--8--8----|


----------------------------|----------------------------|
----------------------------|----------------------------|
----------------------------|----------------------------|
--8--8--8--8--8--8--8--8----|--5--5--5--5--5--5--5--5----|


----------------------------|----------------------------|
----------------------------|----------------------------|
----------------------------|----------------------------|
--5--5--5--5--5--5--5--5----|--8--8--8--8--8--8--8--8----|


----------------------------|----------------------------|
----------------------------|----------------------------|
----------------------------|--3--3--3--3--3--3--3--3----|
--8--8--8--8--8--8--8--8----|----------------------------|


----------------------------|-------|-------|-------|-------||
----------------------------|-------|-------|-------|-------||
--4--4--4--4--4--4--4--4----|--5L---|--5L---|--5L---|--5----||
----------------------------|-------|-------|-------|-------||





Comments


Popular In Flames tabs & chords
Dead Eternity Bass Tabs
Come Clarity Chords
Dawn Of A New Day Tabs
Lord Hypnos 1 Tabs
Man Made God 1 Tabs
Moonshield Tabs
My Sweet Shadow Tabs
Scream 1 Tabs
The Jester Race Tabs
Vacuum Tabs


Song lyrics



↑ Back to top | Tablatures and chords are parodies/interpretations of the original songs. You may use it for private study, scholarship, research or language learning purposes only
© 2014 AZChords.com Contact us | Privacy policy | DMCA | Add/correct tabs | Request tabs | Top 50 tabs