» » »

Imago, Tara Lets Tabs (ver.4)

Artists:  A B C D E F G H I J K L M N O P Q R S T U V W X Y Z # 

Tara Lets Tabs (ver.4)

Imago Tabs
 Rating:
4/5 (8 votes)
Tara Lets lessons Tabs too difficult? Try these video lessons and learn fast
1
                -------------------------------------------------------------------------------
                             TARALETS - IMAGO
-------------------------------------------------------------------------------

Intro:

GUITAR_1
e|--------------------------------|
B|----10----7-----7--7-----7-7----|
G|--7-----7---9-7------7-9--------|
D|--------------------------------|
A|--------------------------------|
E|--------------------------------|

CHORUS:D-G-A
GUITAR_2(ENTERS) AND THE GUITAR_1 continuous 4X 
        D
e|------------------------------|
B|------------------------------|
G|------7-----------------------|
D|------7-----------------------|
A|------5-----------------------|
E|------------------------------|
   Taralets tara tara taralets
        G                 A
e|----------------|-----------------|
B|----------------|-----------------|
G|----------------|-----------------|
D|------5---------|-------7---------|
A|------5---------|-------7---------|
E|------3---------|-------5---------|
    'di ka na   mabibigo  wooh....
        D
e|------------------------------|
B|------------------------------|
G|------7-----------------------|
D|------7-----------------------|
A|------5-----------------------|
E|------------------------------|
   Taralets tara tara taralets
        G                 A
e|----------------|-----------------|
B|----------------|-----------------|
G|----------------|-----------------|
D|------5---------|-------7---------|
A|------5---------|-------7---------|
E|------3---------|-------5---------|
    'di ka na   mabibigo  wooh....

GUITAR_2
          B                 D               G
e|------------------|---------------|---------------|
B|--------4---------|-------7-------|---------------|
G|--------4---------|-------7-------|---------------|( do it 3x )
D|--------2---------|-------5-------|------5-5------|
A|------------------|---------------|------5-5------|
E|------------------|---------------|------3-3------|



GUITAR_1 ENTERS
e|-------3-3--2-2--------|
B|-------3-3--3-3--------|
G|-----------------------| ( do it 3x )
D|-----------------------|
A|-----------------------|
E|-----------------------|

GUITAR_2
           B
e|----------------------|
B|----------------------|
G|---------4------------| ( BREAK )
D|---------4------------|
A|---------2------------|
E|----------------------|
    'wag kang mabibigla
           B
e|----------------------|
B|----------------------|
G|---------4------------| ( BREAK )
D|---------4------------|
A|---------2------------|
E|----------------------|
      Isasama kita
           B
e|----------------------|
B|----------------------|
G|---------4------------| ( BREAK )
D|---------4------------|
A|---------2------------|
E|----------------------|
    'wag ka magtanong
           B
e|----------------------|
B|----------------------|
G|---------4------------| ( BREAK )
D|---------4------------|
A|---------2------------|
E|----------------------|
  Basta sumama ka lang

           G
e|-------------------------------------|
B|-------------------------------------|
G|-------------------------------------|
D|---------5---------------------------|
A|---------5---------------------------|
E|---------3---------------------------|
  'wag mong unahan abonado ang pagasa



GUITAR_2
           B
e|----------------------|
B|----------------------|
G|---------4------------| ( BREAK )
D|---------4------------|
A|---------2------------|
E|----------------------|
    Mabilis ang palit           

           B
e|----------------------|
B|----------------------|
G|---------4------------| ( BREAK )
D|---------4------------|
A|---------2------------|
E|----------------------|
   Ng tula ng mundo
           B
e|----------------------|
B|----------------------|
G|---------4------------| ( BREAK )
D|---------4------------|
A|---------2------------|
E|----------------------|
    Minsan isisigaw
           B
e|----------------------|
B|----------------------|
G|---------4------------| ( BREAK )
D|---------4------------|
A|---------2------------|
E|----------------------|
   Minsan ibubulong


           G
e|-------------------------------------|
B|-------------------------------------|
G|-------------------------------------|
D|---------5---------------------------|
A|---------5---------------------------|
E|---------3---------------------------|
  'wag mong pigilan Sulitin at sumama
 

GUITAR_1 ENTERS (4X)
e|--------------------------------|
B|----10----7-----7--7-----7-7----|
G|--7-----7---9-7------7-9--------|
D|--------------------------------|
A|--------------------------------|
E|--------------------------------|
GUTAR_2
        D
e|------------------------------|
B|------------------------------|
G|------7-----------------------|
D|------7-----------------------|
A|------5-----------------------|
E|------------------------------|
   Taralets tara tara taralets
        G                 A
e|----------------|-----------------|
B|----------------|-----------------|
G|----------------|-----------------|
D|------5---------|-------7---------|
A|------5---------|-------7---------|
E|------3---------|-------5---------|
    'di ka na   mabibigo  wooh....
      



               D
e|------------------------------|
B|------------------------------|
G|------7-----------------------|
D|------7-----------------------|
A|------5-----------------------|
E|------------------------------|
   Taralets tara tara taralets

        G                 A
e|----------------|-----------------|
B|----------------|-----------------|
G|----------------|-----------------|
D|------5---------|-------7---------|
A|------5---------|-------7---------|
E|------3---------|-------5---------|
    'di ka na   mabibigo  wooh....



GUITAR_2
           B
e|----------------------|
B|----------------------|
G|---------4------------| ( BREAK )
D|---------4------------|
A|---------2------------|
E|----------------------|
   Kung sigurado ka na
        
           B
e|----------------------|
B|----------------------|
G|---------4------------| ( BREAK )
D|---------4------------|
A|---------2------------|
E|----------------------|
   Anong hinihintay mo?  
           B
e|----------------------|
B|----------------------|
G|---------4------------| ( BREAK )
D|---------4------------|
A|---------2------------|
E|----------------------|
   Sumayaw sa tuwa
           B
e|----------------------|
B|----------------------|
G|---------4------------| ( BREAK )
D|---------4------------|
A|---------2------------|
E|----------------------|
   Pasabugin ang saya

           G
e|-------------------------------------|
B|-------------------------------------|
G|-------------------------------------|
D|---------5---------------------------|
A|---------5---------------------------|
E|---------3---------------------------|
  'wag mong pigilan Abonado ang pag-asa

GUITAR_2
           B
e|----------------------|
B|----------------------|
G|---------4------------| ( BREAK )
D|---------4------------|
A|---------2------------|
E|----------------------|
    Itaas ang kamay
        
           B
e|----------------------|
B|----------------------|
G|---------4------------| ( BREAK )
D|---------4------------|
A|---------2------------|
E|----------------------|
   Hanapin mo ang tulay        
         
           B
e|----------------------|
B|----------------------|
G|---------4------------| ( BREAK )
D|---------4------------|
A|---------2------------|
E|----------------------|
   Bitiwan ang duda
           B
e|----------------------|
B|----------------------|
G|---------4------------| ( BREAK )
D|---------4------------|
A|---------2------------|
E|----------------------|
   Bigla kang sumabay

           G
e|-------------------------------------|
B|-------------------------------------|
G|-------------------------------------|
D|---------5---------------------------|
A|---------5---------------------------|
E|---------3---------------------------|
  'wag mong pigilan Sulitin at sumama


GUITAR_1
e|--------------------------------|
B|----10----7-----7--7-----7-7----|
G|--7-----7---9-7------7-9--------|
D|--------------------------------|
A|--------------------------------|
E|--------------------------------|

CHORUS:D-G-A
GUITAR_2(ENTERS) AND THE GUITAR_1 continuous 4X 
        D
e|------------------------------|
B|------------------------------|
G|------7-----------------------|
D|------7-----------------------|
A|------5-----------------------|
E|------------------------------|
   Taralets tara tara taralets
        G                 A
e|----------------|-----------------|
B|----------------|-----------------|
G|----------------|-----------------|
D|------5---------|-------7---------|
A|------5---------|-------7---------|
E|------3---------|-------5---------|
    'di ka na   mabibigo  wooh....
        D
e|------------------------------|
B|------------------------------|
G|------7-----------------------|
D|------7-----------------------|
A|------5-----------------------|
E|------------------------------|
   Taralets tara tara taralets
        G                 A
e|----------------|-----------------|
B|----------------|-----------------|
G|----------------|-----------------|
D|------5---------|-------7---------|
A|------5---------|-------7---------|
E|------3---------|-------5---------|
    'di ka na   mabibigo  wooh....
        D
e|------------------------------|
B|------------------------------|
G|------7-----------------------|
D|------7-----------------------|
A|------5-----------------------|
E|------------------------------|
   Taralets tara tara taralets
        G                 A
e|----------------|-----------------|
B|----------------|-----------------|
G|----------------|-----------------|
D|------5---------|-------7---------|
A|------5---------|-------7---------|
E|------3---------|-------5---------|
    'di ka na   mabibigo  wooh....
        D
e|------------------------------|
B|------------------------------|
G|------7-----------------------|
D|------7-----------------------|
A|------5-----------------------|
E|------------------------------|
   Taralets tara tara taralets
        G                 A
e|----------------|-----------------|
B|----------------|-----------------|
G|----------------|-----------------|
D|------5---------|-------7---------|
A|------5---------|-------7---------|
E|------3---------|-------5---------|
    'di ka na   mabibigo  wooh....


GUITAR_2
          B                 D               G
e|------------------|---------------|---------------|
B|--------4---------|-------7-------|---------------|
G|--------4---------|-------7-------|---------------|( do it 9x )
D|--------2---------|-------5-------|------5-5------|
A|------------------|---------------|------5-5------|
E|------------------|---------------|------3-3------|



GUITAR_1 ENTERS
e|-------3-3--2-2--------|
B|-------3-3--3-3--------|
G|-----------------------| ( do it 3x )
D|-----------------------|
A|-----------------------|
E|-----------------------|

Taralets tara tara taralets
Taralets tara tara taralets
Taralets tara tara taralets
e|--------------------------------|
B|----10----7-----7--7-----7-7----|
G|--7-----7---9-7------7-9--------|
D|--------------------------------|
A|--------------------------------|
E|--------------------------------|
   Taralets tara tara taralets

Taralets tara tara taralets
'di ka na mabibigo
Taralets tara tara taralets
'di ka na mabibigo
Taralets tara tara taralets
'di ka na mabibigo
Taralets tara tara taralets
'di ka na mabibigo
GUITAR_2
          B                 D               G
e|------------------|---------------|---------------|
B|--------4---------|-------7-------|---------------|
G|--------4---------|-------7-------|---------------|( do it 3x )
D|--------2---------|-------5-------|------5-5------|
A|------------------|---------------|------5-5------|
E|------------------|---------------|------3-3------|


GUITAR_1 ENTERS
e|-------3-3--2-2--------|
B|-------3-3--3-3--------|
G|-----------------------| ( do it 3x )
D|-----------------------|
A|-----------------------|
E|-----------------------|
| /  slide up
| \  slide down
| h  hammer-on
| p  pull-off
| ~  vibrato
| +  harmonic
| x  Mute note
===============================================================================
            
Submit corrections

comments powered by Disqus
↑ Back to top | Imago Tabs for Tara Lets. Lyrics for acoustic guitar and electric guitar. 1 Tablatures and chords are parodies/interpretations of the original songs. You may use it for private study, scholarship, research or language learning purposes only