» » »

Tara Lets Tabs (ver.2)

Artists:  A B C D E F G H I J K L M N O P Q R S T U V W X Y Z # 

Tara Lets Tabs (ver.2)

Imago
Rating:
1/5 (1 vote)

Tabs too difficult? Try these video lessons and learn fast.
                bAnD:IMaGo
aLbUm:bLuSh

++mUsiCEaRs++
__miFfIE__
fOr sOmE CoMmEnTs
tEx mE NalAnG
--09198085069


sAnA MgUsTuHaN NyUh..

Intro:
e|----------------------------------|
B|----------------9--------7h9-9----|
G|---9-9----9-9-9----9-9-9----------|
D|-7--------------------------------|
A|----------------------------------|
E|----------------------------------|

Chorus:
(D,G,A)
guitar1
e|----------------------------------------|
B|----------------------------------------|
G|-77777777-------------------------------|
D|-77777777-55555555-77777777-------------|
A|-55555555-55555555-77777777-------------|
E|----------33333333-55555555-------------|

guitar2

e|----------------------------------|
B|----------------9--------7h9-9----|
G|---9-9----9-9-9----9-9-9----------|
D|----------------------------------|
A|----------------------------------|
E|----------------------------------|

tArA lEtS.. TaRa tArA TaRa lETs
dI KaNa mAbIbIgO Oh..

guitar1
e|----------------------------------------|
B|----------------------------------------|
G|-77777777-------------------------------|
D|-77777777-55555555-77777777-------------|
A|-55555555-55555555-77777777-------------|
E|----------33333333-55555555-------------|

guitar2
e|----------------------------------|
B|----------------9--------7h9-9----|
G|---9-9----9-9-9----9-9-9----------|
D|----------------------------------|
A|----------------------------------|
E|----------------------------------|

tArA lEtS.. TaRa tArA TaRa lETs
dI KaNa mAbIbIgO

Pre-Verse
(Bm,D,A,G)
e|------------------------------------------------------|
B|------------------99910/9------------------99910/9----|
G|-4-7777-----------99910/9-4-7777-----------99910/9----|
D|-4-7777-7777/5555-7778/7--4-7777-7777/5555-7778/7-----|REPEAT 4X
A|-2-5555-7777/5555---------2-5555-7777/5555------------|
E|--------5555/3333-------------------------------------|

1st Verse:
(Bm,G)
e|--------------------|
B|--------------------|
G|-444------444-------|
D|-444-555--444--555--|
A|-222-555--222--555--|
E|-----333-------333--|

wAg kAnG MabiBigLa, iSaSaMa KiTA
WaG kAnG mAtAnOng, BAsTat sUmAmA kA LaNg

e|------------------------------------------------|
B|------------------------------------------------|
G|-44444444-77777777------------------------------|
D|-44444444-77777777-77777777-55555555------------|
A|-22222222-55555555-77777777-55555555------------|
E|-------------------55555555-33333333------------|
 
wAg mOnG UnAhAn, aBoNaDo aNg pAg-aSa

e|--------------------|
B|--------------------|
G|-444------444-------|
D|-444-555--444--555--|
A|-222-555--222--555--|
E|-----333-------333--|

mAbIlIs Ng pAlIt Ng tUlA Ng MuNdO
kuNg sAn iSIsiGaW, kUnG SaN IbuBuloNG

e|------------------------------------------------|
B|------------------------------------------------|
G|-44444444-77777777------------------------------|
D|-44444444-77777777-77777777-55555555------------|
A|-22222222-55555555-77777777-55555555------------|
E|-------------------55555555-33333333------------|
 
WaG MoNg PIgiLan, sUlItIn aT sUmAmA

Chorus:
(D,G,A)
guitar1
e|----------------------------------------|
B|----------------------------------------|
G|-77777777-------------------------------|
D|-77777777-55555555-77777777-------------|
A|-55555555-55555555-77777777-------------|
E|----------33333333-55555555-------------|

guitar2

e|----------------------------------|
B|----------------9--------7h9-9----|
G|---9-9----9-9-9----9-9-9----------|
D|----------------------------------|
A|----------------------------------|
E|----------------------------------|

tArA lEtS.. TaRa tArA TaRa lETs
dI KaNa mAbIbIgO Oh..

guitar1
e|----------------------------------------|
B|----------------------------------------|
G|-77777777-------------------------------|
D|-77777777-55555555-77777777-------------|
A|-55555555-55555555-77777777-------------|
E|----------33333333-55555555-------------|

guitar2
e|----------------------------------|
B|----------------9--------7h9-9----|
G|---9-9----9-9-9----9-9-9----------|
D|----------------------------------|
A|----------------------------------|
E|----------------------------------|

tArA lEtS.. TaRa tArA TaRa lETs
dI KaNa mAbIbIgO

2nd Verse:

e|--------------------|
B|--------------------|
G|-444------444-------|
D|-444-555--444--555--|
A|-222-555--222--555--|
E|-----333-------333--|

kUnG cGuRaDo kA nA, AnOnG HNiHiNtAy Mo?
suMaYaW Sa TuWa, PaSabUgIn aNg sAYa

e|------------------------------------------------|
B|------------------------------------------------|
G|-44444444-77777777------------------------------|
D|-44444444-77777777-77777777-55555555------------|
A|-22222222-55555555-77777777-55555555------------|
E|-------------------55555555-33333333------------|
 
wAg mOnG UnAhAn, aBoNaDo aNg pAg-aSa

e|--------------------|
B|--------------------|
G|-444------444-------|
D|-444-555--444--555--|
A|-222-555--222--555--|
E|-----333-------333--|

iTaAS aNg kAmAy, HaNaPiN mO AnG tuLaY
BiTiWaN AnG DuDa bIglA KaNg sUmAbAy

e|------------------------------------------------|
B|------------------------------------------------|
G|-44444444-77777777------------------------------|
D|-44444444-77777777-77777777-55555555------------|
A|-22222222-55555555-77777777-55555555------------|
E|-------------------55555555-33333333------------|
 
WaG MoNg PIgiLan, sUlItIn aT sUmAmA

Chorus:
(D,G,A)
guitar1
e|----------------------------------------|
B|----------------------------------------|
G|-77777777-------------------------------|
D|-77777777-55555555-77777777-------------|
A|-55555555-55555555-77777777-------------|
E|----------33333333-55555555-------------|

guitar2

e|----------------------------------|
B|----------------9--------7h9-9----|
G|---9-9----9-9-9----9-9-9----------|
D|----------------------------------|
A|----------------------------------|
E|----------------------------------|

tArA lEtS.. TaRa tArA TaRa lETs
dI KaNa mAbIbIgO Oh..

guitar1
e|----------------------------------------|
B|----------------------------------------|
G|-77777777-------------------------------|
D|-77777777-55555555-77777777-------------|
A|-55555555-55555555-77777777-------------|
E|----------33333333-55555555-------------|

guitar2
e|----------------------------------|
B|----------------9--------7h9-9----|
G|---9-9----9-9-9----9-9-9----------|
D|----------------------------------|
A|----------------------------------|
E|----------------------------------|

tArA lEtS.. TaRa tArA TaRa lETs
dI KaNa mAbIbIgO

taRa lEtS, TaRa tArA TaRa LeTs (4x)
(oOoHh..)
Chorus:
(D,G,A)
guitar1
e|----------------------------------------|
B|----------------------------------------|
G|-77777777-------------------------------|
D|-77777777-55555555-77777777-------------|
A|-55555555-55555555-77777777-------------|
E|----------33333333-55555555-------------|

guitar2

e|----------------------------------|
B|----------------9--------7h9-9----|
G|---9-9----9-9-9----9-9-9----------|
D|----------------------------------|
A|----------------------------------|
E|----------------------------------|

tArA lEtS.. TaRa tArA TaRa lETs
dI KaNa mAbIbIgO Oh..

guitar1
e|----------------------------------------|
B|----------------------------------------|
G|-77777777-------------------------------|
D|-77777777-55555555-77777777-------------|
A|-55555555-55555555-77777777-------------|
E|----------33333333-55555555-------------|

guitar2
e|----------------------------------|
B|----------------9--------7h9-9----|
G|---9-9----9-9-9----9-9-9----------|
D|----------------------------------|
A|----------------------------------|
E|----------------------------------|

tArA lEtS.. TaRa tArA TaRa lETs
dI KaNa mAbIbIgO


guitar1
e|----------------------------------------|
B|----------------------------------------|
G|-77777777-------------------------------|
D|-77777777-55555555-77777777-------------|
A|-55555555-55555555-77777777-------------|
E|----------33333333-55555555-------------|

guitar2

e|----------------------------------|
B|----------------9--------7h9-9----|
G|---9-9----9-9-9----9-9-9----------|
D|----------------------------------|
A|----------------------------------|
E|----------------------------------|

tArA lEtS.. TaRa tArA TaRa lETs
dI KaNa mAbIbIgO Oh..

guitar1
e|----------------------------------------|
B|----------------------------------------|
G|-77777777-------------------------------|
D|-77777777-55555555-77777777-------------|
A|-55555555-55555555-77777777-------------|
E|----------33333333-55555555-------------|

guitar2
e|----------------------------------|
B|----------------9--------7h9-9----|
G|---9-9----9-9-9----9-9-9----------|
D|----------------------------------|
A|----------------------------------|
E|----------------------------------|

tArA lEtS.. TaRa tArA TaRa lETs
dI KaNa mAbIbIgO

e|------------------------------------------------------|
B|------------------99910/9------------------99910/9----|
G|-4-7777-----------99910/9-4-7777-----------99910/9----|
D|-4-7777-7777/5555-7778/7--4-7777-7777/5555-7778/7-----|REPEAT 4X
A|-2-5555-7777/5555---------2-5555-7777/5555------------|
E|--------5555/3333-------------------------------------|


>>eNd<<
            
Tabs too difficult? Try these video lessons and learn fast.


comments powered by Disqus
↑ Back to top | Tablatures and chords are parodies/interpretations of the original songs. You may use it for private study, scholarship, research or language learning purposes only