» » »

Imago, Ewan Bass tabs (ver.1)

Artists:  A B C D E F G H I J K L M N O P Q R S T U V W X Y Z # 

Ewan Bass tabs (ver.1)

Imago Tabs
 Rating:
4/5 (4 votes)
Ewan lessons Tabs too difficult? Try these video lessons and learn fast
                Intro:

“Ewan”, + 1 bar, then . . .
Rest 4 bars, then . . .
G|---------------|
D|---------------|
A|-----5h7-7-5h7-|
E|-5-5-----------| 4x

Verse I:

G|---------------|---------------|-------------|--------------|
D|---------------|---------------|-------------|--------------|
A|-4-4-----------|-4-4-----------|-------------|-77-5h7-5h7-7-|
E|-----0h2-0h2-2-|-----0h2-0h2-2-|-5h7-7-5h7-7-|--------------|

G|---------------|---------------|-------------|------------|
D|---------------|---------------|-------------|--------5/7-|
A|-4-4-----------|-4-4-----------|-------------|-77-5h7-----|
E|-----0h2-0h2-2-|-----0h2-0h2-2-|-5h7-7-5h7-7-|------------|

Chorus:

G|---------------|---------------|-----------|-----------|
D|-----3h5-3h5-5-|---------------|-----------|-----------|
A|---------------|-7-7-----------|-5-5-3h5-5-|-----------|
E|-1-1-----------|-----3h5-3h5-3-|-----------|-33-/8-8-8-|

G|---------------|---------------|-----------|-----------|
D|-----3h5-3h5-5-|---------------|-----------|-----------|
A|---------------|-7-7-----------|-5-5-3h5-5-|-3h5-5-5-7-|
E|-1-1-----------|-----3h5-3h5-3-|-----------|-----------|

G|---------------|---------------|---------------|-------------|
D|---------------|---------------|---------------|-------------|
A|-----5h7-7-5h7-|-----5h7-7-5h7-|-----5h7-7-5h7-|-----5/7-5/7-|
E|-5-5-----------|-5-5-----------|-5-5-----------|-5-5---------|

Verse II:

G|---------------|---------------|-------------|--------------|
D|---------------|---------------|-------------|--------------|
A|-4-4-----------|-4-4-----------|-------------|-77-5h7-5h7-7-|
E|-----0h2-0h2-2-|-----0h2-0h2-2-|-5h7-7-5h7-7-|--------------|

G|---------------|---------------|-------------|--------------|
D|---------------|---------------|-------------|--------------|
A|-4-4-----------|-4-4-----------|-------------|-77-5h7-5h7-7-|
E|-----0h2-0h2-2-|-----0h2-0h2-2-|-5h7-7-5h7-7-|--------------|

Chorus:

G|---------------|---------------|-----------|-----------|
D|-----3h5-3h5-5-|---------------|-----------|-----------|
A|---------------|-7-7-----------|-5-5-3h5-5-|-----------|
E|-1-1-----------|-----3h5-3h5-3-|-----------|-33-/8-8-8-|

G|---------------|---------------|-----------|-----------|
D|-----3h5-3h5-5-|---------------|-----------|-----------|
A|---------------|-7-7-----------|-5-5-3h5-5-|-3h5-5-5-7-|
E|-1-1-----------|-----3h5-3h5-3-|-----------|-----------|

Adlib:

G|-----------|
D|-----------|
A|-----x55x5-|
E|-555-------| 8x

G|---------------|---------------|-------------|--------------|
D|---------------|---------------|-------------|--------------|
A|-4-4-----------|-4-4-----------|-------------|-77-5h7-5h7-7-|
E|-----0h2-0h2-2-|-----0h2-0h2-2-|-5h7-7-5h7-7-|--------------| 2x

Chorus:

G|---------------|---------------|-----------|-----------|
D|-----3h5-3h5-5-|---------------|-----------|-----------|
A|---------------|-7-7-----------|-5-5-3h5-5-|-----------|
E|-1-1-----------|-----3h5-3h5-3-|-----------|-33-/8-8-8-|

G|---------------|---------------|-----------|-----------|
D|-----3h5-3h5-5-|---------------|-----------|-----------|
A|---------------|-7-7-----------|-5-5-3h5-5-|-3h5-5-5-7-|
E|-1-1-----------|-----3h5-3h5-3-|-----------|-----------|

Outro:

G|---------------|
D|---------------|
A|-----3h5-5-3h5-|
E|-5-5-----------| Repeat to infinity (I stopped counting at 25x; to fade)
            
Submit corrections

comments powered by Disqus
↑ Back to top | Imago Bass for Ewan. Lyrics for acoustic guitar and electric guitar. Tablatures and chords are parodies/interpretations of the original songs. You may use it for private study, scholarship, research or language learning purposes only