» » »

Tara Lets Tabs (ver.1)

Artists:  A B C D E F G H I J K L M N O P Q R S T U V W X Y Z # 

Tara Lets Tabs (ver.1)

Imago
Rating:
4/5 (15 votes)

Hard to play? Try these video lessons and learn fast.
                Album:Blush

. - palm mute
x - dead string
~ - let it ring
/ - slide

INTRO RIFF
YOU CAN DO THIS...
e|----2-----3----2----3---2~-----|
B|-3-----3----3----3-------------|
G|-------------------------------| timing and picking
D|-------------------------------|
A|-------------------------------|
E|-------------------------------|

OR DIS ONE
e|--------------------------|
B|--------9---9----9---7-9--|
G|----9-9---9----9----------| timing and picking
D|--7-----------------------|
A|--------------------------|
E|--------------------------|

Chorus

Guitar 1 Tara lets..Tara Tara lets
e|----------------------------------------|
B|----------------------------------------|
G|-77777777-------------------------------|
D|-77777777-55555555-77777777-------------| REPEAT 2X
A|-55555555-55555555-77777777-------------|
E|----------33333333-55555555-------------|

Guitar 2
this..
e|----2-----3----2----3---2~-----|
B|-3-----3----3----3-------------|
G|-------------------------------| REPEAT AS NECESSARY
D|-------------------------------| 
A|-------------------------------|
E|-------------------------------|

or this...
e|--------------------------|
B|--------9---9----9---7-9--|
G|----9-9---9----9----------| REPEAT AS NECESSARY 
D|--7-----------------------|
A|--------------------------|
E|--------------------------|


Pre-Verse (Bm,D,G,F#)
e|------------------------------------------------------|
B|------------------------------------------------------|
G|-4-7777------------1212/11--4-7777-----------1212/11--|
D|-4-7777-5555/4444---x-x-x---4-7777-5555/4444--x-x--x--| REPEAT 4X
A|-2-5555-5555/4444--1010/9---2-5555-5555/4444-1010/-9--|
E|--------3333/2222------------------3333/2222----------|

VERSE (B,G)
e|-------------------------------|
B|-------------------------------|
G|-4-44-44-44--------------------|
D|-4-44-44-44--5555555555--------|
A|-2-22-22-22--5555555555--------|
E|-------------3333333335--------|
  .  .. .. ..


THEN CHORUS 2X
VERSE 2: REPEAT VERSE (B,G)
CHORUS 2X

BRIDGE (Bm,D,G,F#)
e|---------------------          ---------------------------|
B|---------------------          ---------------------------|
G|-4-7777-------------- 4X THEN  -4-7777-----------1212/11--| REPEAT 4X
D|-4-7777-5555-4444----          -4-7777-5555-4444--x-x--x--|
A|-2-5555-5555-4444----          -2-5555-5555-4444-1010/-9--|
E|--------3333-2222----          --------3333-2222----------|

REPEAT CHORUS
THEN PRE-VERSE 4X

`END


Tara lets
Imago

tara lets tara tara tara lets
di ka na mabibigo...oh

wag kang mabibigla
isasama kita
wag kang matanong
basta sumama ka lang

wag mong unahan
abonado ang pag-asa

mabilis ang palit
ng tula ng mundo
minsan isisigaw
minsan ibubulong

wag mong pigilan
sulitin at sumama

kung sigurado ka na
anong hinihintay mo
sumayaw sa tuwa
pasabugin ang saya

itaas ang kamay
hanapin mo ang tulay
bitiwan ang duda
bigla kang sumabay


I would like to greet and give thanks to my cockmates in nsda traitor social club!!! 
thanks to no_falter08 for some corrections..
            
Hard to play? Try these video lessons and learn fast. | Correct




comments powered by Disqus
↑ Back to top | Tablatures and chords are parodies/interpretations of the original songs. You may use it for private study, scholarship, research or language learning purposes only