» » »

Imago, Tara Lets Tabs (ver.3)

Artists:  A B C D E F G H I J K L M N O P Q R S T U V W X Y Z # 

Tara Lets Tabs (ver.3)

Imago Tabs
Rating:
3/5 (2 votes)
Tara Lets lessons Tabs too difficult? Try these video lessons and learn fast
                Band/Artist: Imago
Song Title: Taralets
Tuning: Standard EADGBe

Intro
e|----5---2p0---2~-2---0h2-2-|
B|--3---3-----3------3-------|
G|---------------------------|
D|---------------------------|
A|---------------------------|
E|---------------------------|

Chorus
Guitar 1
e|----5---2p0---2~-2---0h2-2-|
B|--3---3-----3------3-------|
G|---------------------------|
D|---------------------------| 4x
A|---------------------------|
E|---------------------------|

Guitar 2
e|--------------------------------------|
B|--------------------------------------|
G|--7777777777777777--------------------|
D|--7777777777777777-55555555-77777777--| 2x
A|--5555555555555555-55555555-77777777--|
E|-------------------33333333-55555555--|

PreVerse
e|--------------------------------|
B|--------------------------------|
G|--------------------------------|
D|-------------------12-12-11-11--| 4x
A|--999-12-12-12-777-10-10-9--9---|
E|--777-10-10-10-555--------------|

Verse I
e|------------------------------|
B|------------------------------|
G|--44----44--------------------|
D|--44-44-44-44-55555555555555--| 2x
A|--22-44-22-44-55555555555555--|
E|-----22----22-33333333333333--|

Chorus
Guitar 1
e|----5---2p0---2~-2---0h2-2-|
B|--3---3-----3------3-------|
G|---------------------------|
D|---------------------------| 4x
A|---------------------------|
E|---------------------------|

Guitar 2
e|--------------------------------------|
B|--------------------------------------|
G|--7777777777777777--------------------|
D|--7777777777777777-55555555-77777777--| 2x
A|--5555555555555555-55555555-77777777--|
E|-------------------33333333-55555555--|

Verse II
e|------------------------------|
B|------------------------------|
G|--44----44--------------------|
D|--44-44-44-44-55555555555555--| 2x
A|--22-44-22-44-55555555555555--|
E|-----22----22-33333333333333--|

Chorus
Guitar 1
e|----5---2p0---2~-2---0h2-2-|
B|--3---3-----3------3-------|
G|---------------------------|
D|---------------------------| 8x
A|---------------------------|
E|---------------------------|

Guitar 2
e|--------------------------------------|
B|--------------------------------------|
G|--7777777777777777--------------------|
D|--7777777777777777-55555555-77777777--| 4x
A|--5555555555555555-55555555-77777777--|
E|-------------------33333333-55555555--|

Interlude
e|--------------------|
B|--------------------|
G|--------------------|
D|--------------------| 4x
A|--999-12-12-12-777--|
E|--777-10-10-10-555--|

e|--------------------------------|
B|--------------------------------|
G|--------------------------------|
D|-------------------12-12-11-11--| 4x
A|--999-12-12-12-777-10-10-9--9---|
E|--777-10-10-10-555--------------|

Bridge (Taralets... tara tara tara lets..)
e|----5---2p0---2~-2---0h2-2-|
B|--3---3-----3------3-------|
G|---------------------------|
D|---------------------------|
A|---------------------------|
E|---------------------------|

Chorus
Guitar 1
e|----5---2p0---2~-2---0h2-2-|
B|--3---3-----3------3-------|
G|---------------------------|
D|---------------------------| 8x
A|---------------------------|
E|---------------------------|

Guitar 2
e|--------------------------------------|
B|--------------------------------------|
G|--7777777777777777--------------------|
D|--7777777777777777-55555555-77777777--| 4x
A|--5555555555555555-55555555-77777777--|
E|-------------------33333333-55555555--|

Ending
e|--------------------------------|
B|--------------------------------|
G|--------------------------------|
D|-------------------12-12-11-11--| 4x
A|--999-12-12-12-777-10-10-9--9---|
E|--777-10-10-10-555--------------|


Thank you!
            
Submit corrections

comments powered by Disqus
↑ Back to top | Imago Tabs for Tara Lets. Lyrics for acoustic guitar and electric guitar. Tablatures and chords are parodies/interpretations of the original songs. You may use it for private study, scholarship, research or language learning purposes only