» » »

Imago, Sundo Tabs (ver.3)

Artists:  A B C D E F G H I J K L M N O P Q R S T U V W X Y Z # 

Sundo Tabs (ver.3)

Imago Tabs
 Rating:
4/5 (4 votes)
Sundo lessons Tabs too difficult? Try these video lessons and learn fast
                Hi to all of you! This is a nice song! Hope you like it!

Intro: A-AM7-A7-D

e|-----------------------------------------------------------------------|
B|------2-------2-------2-------2-------2-------2-------3---3------------|
G|----2---2---2---2---1---1---1---1---0---0---0---0---2---2--------------|
D|--2-------2-------2-------2-------2-------2-------0--------------------|
A|-----------------------------------------------------------------------|
E|-----------------------------------------------------------------------|

(Repeat)

Verse 1:
       A                      *C#m
Kay tagal kong sinusuyod ang buong mundo
       A7             D
Para hanapin, para hanapin ka
   A                    *C#m
Nilibot ang distrito ng iyong lumbay
    A7          D
Pupulutin, pupulutin ka

(*I am not very sure of C#m. You may replace it with AM7 but I think C#m sounds better.)

Refrain:
E                 E7
Sinusundo kita... sinusundo...

Chorus:
A       Em
Asahan mo (Asahan mo)
Bm             D
Mula ngayon pag-big ko'y sa'yo
(Repeat)

e|-----------------------------------------------------------------------|
B|------2-------2-------2-------2-------2-------2-------3---3------------|
G|----2---2---2---2---1---1---1---1---0---0---0---0---2---2--------------|
D|--2-------2-------2-------2-------2-------2-------0--------------------|
A|-----------------------------------------------------------------------|
E|-----------------------------------------------------------------------|

Verse 2: (Do verse chords)
Sa akin mo isabit ang pangarap mo
Di kukulangin, ang ibibigay
Isuko ang kaba't tuluyan kang bumitaw
Ika'y man*lig, man*lig ka

(Repeat refrain)
(Repeat chorus 2x)

(Do chorus chords)
Asahan mo
Handa na sa liwanag mo
Sinuyod ang buong mundo
Maghihintay sa iyong sundo
(Repeat 3x)

(Repeat chorus)
A
Asahan mo... (ohhh)

End with Em

That's it! Para sa akin... tama naman siya... ewan ko lang sa inyo...
            
Submit corrections

comments powered by Disqus
↑ Back to top | Imago Tabs for Sundo. Lyrics for acoustic guitar and electric guitar. Tablatures and chords are parodies/interpretations of the original songs. You may use it for private study, scholarship, research or language learning purposes only